Rembrandts - Ill Be There For You Chords & Tabs

 

Ill Be There For You Chords & Tabs

Rembrandts Chords & Tabs

Version: 2 Type: Tab 0 ratings
1 star 2 stars 3 stars 4 stars 5 stars
comments

Ill Be There For You Tab

   
I'll be there for you
Standard Tuning

Intro
---------------------------------------------------
---------------------------------------------------
------5/6-5/6\4--2-0-0-2-2/4-2---------------------  x4
---------------------------------------------------
----0----------------------------------------------
---------------------------------------------------

Verse
A                                          G
So no one told you life was gonna be this way
A                                                      C#m
Your job's a joke you're broke your love life's D.O.A.
G               Bm               A
It's like you're always stuck in second gear
        G               D                     E
When it hasn't been your day, your week, your month, or even your year

Chorus
   A         D           E
But, I'll be there for you (When the rain starts to pour)
---------------------------------------------------
--4/5-5\-30-4/5--5--5--5--3--0------------------
----------------------------------2----------------
---------------------------------------------------
---------------------------------------------------
---------------------------------------------------
A       D           E
I'll be there for you (Like I've been there before)
---------------------------------------------------
--4/5-5\-30-4/5--5--5--5--3--0------------------
----------------------------------2----------------
---------------------------------------------------
---------------------------------------------------
---------------------------------------------------
A       D           E                             G
I'll be there for you ('Cause you're there for me too)
---------------------------------------------------
-----------------0h1-------------------------------
---2/42/42--4-------4-2-4--2-2-------------------
---------------------------------------------------
---------------------------------------------------
---------------------------------------------------

A                                           G
You're still in bed at 10 and work began at 8
A                                                   C#m
You burned your breakfast so far, things are going great
G             Bm                 A
Your mother warned you there'd be days like these
---------------------------------------------------
---------------------------------------------------
--------------2-------2----------------------------
-----------2-------2-------------------------------
--0--2--4-------4-------0--2-----------------------
---------------------------------------------------

          G              D                          E
But she didn't tell you when the world has brought you down to your knees

CHORUS

---------------------------------------------------
---------------------------------------------------
--------------2-------2----2-----------------------
-----------2-------2-------------------------------
--0--2--4-------4-------0--------------------------
---------------------------------------------------
D
No one could ever know me No one could ever see me
---------------------------------------------------
-----------3----5----------------3----5-----3------
-----2---------------2-------2-----------------2---
4------------------------4-------------------------
---------------------------------------------------
---------------------------------------------------
F#m
Sometimes the only one who knows what its like to be me
---------------------------------------------------
---------------------------------------------------
-----------2----4----2-------------2----4----2-----
------4-----------------4------4-----------------4-
---------------------------------------------------
--2------------------------2-----------------------
Bm                          A
Someone to face the day with, make it through all the mess with
---------------------------------------------------
---------0----3----0------------0----3----0--------
---------------------------------------------------
------4--------------4-------4---------------4-----
-2-----------------------0-------------------------
---------------------------------------------------
G                               E              D         E         F#m
Someone I'll always laugh with, even under the worst I'm best with you
---------------------------------------------------
---------------------------------------------------
----------4-----------2----------1-----------------
-------5-----------4----------2--------------------
----5-----------5----------2-----------------------
-3-----------2----------0--------------------------
[ Tab from: http://www.guitartabs.cc/tabs/r/rembrandts/ill_be_there_for_you_tab_ver_2.html ]
-----------------------------------------0------0--
-----------------------------------------2------2--
---5/6-6-6-6-6-6-6-6-6\--2---24/6-4-4---2----2----
---------------------------4-------------2--2------
---------------------------------------------------
---------------------------------------------------

--------------------------0-----0-----0-----0------
----------------------------0-----0-----0-----0----
-2--44/6-------4/6--4--------2-----1--------------
----------2--4----------------------------6--------
---------------------------------------------------
---------------------------------------------------

---------------------------------------------------
---------------------------------------------------
---------------------------------------------------
---------------------------------------------------
--2/4-4-4-4-4-4-4-4-4\--0-----0-2/4--2--2---------
---------------------------2-----------------------

---------------------------------------------------
----------------------------------2/3--3-----------
-1/2--2--2--1--1---2--4--2-----2-------------------
----------------------------2----------------------
---------------------------------------------------
---------------------------------------------------


---------------------------------------------------
---------------7--10-------------------------------
---4--6--7--9--------------------------------------\
--------------------------------------------------- \
---------------------------------------------------  \
---------------------------------------------------  | 
                                                     | same time(2gtrs) 
                                                     | 
----------0----|-----------------------------------  | 
----------0----|-----------------------------------  /
------4--------|-x4-------------------------------- /
---6-----------|-----------------------------------/
---------------|-----------------------------------
---------------|-----------------------------------

G               Bm               A
It's like you're always stuck in second gear
---------------------------------------------------
---------------------------------------------------
--------------2-------2----------------------------
-----------2-------2-------------------------------
--0--2--4-------4-------0--2-----------------------
---------------------------------------------------
        G                  D                    E
When it hasn't been your day, your week, your month, or even your year

A         D           E
But, I'll be there for you (When the rain starts to pour)
---------------------------------------------------
--4/5-5\-30-4/5--5--5--5--3--0------------------
----------------------------------2----------------
---------------------------------------------------
---------------------------------------------------
---------------------------------------------------
A       D           E
I'll be there for you (Like I've been there before)
---------------------------------------------------
--4/5-5\-30-4/5--5--5--5--3--0------------------
----------------------------------2----------------
---------------------------------------------------
---------------------------------------------------
---------------------------------------------------
A       D           E                             G
I'll be there for you ('Cause you're there for me too)
---------------------------------------------------
---4/5--5--30--4/5--5--5--5--3--0-----------------
---------------------------------------------------
---------------------------------------------------
---------------------------------------------------
---------------------------------------------------

A         D           E
But, I'll be there for you (When the rain starts to pour)
---------------------------------------------------
---1/2-------1/2--0--------------------------------
---------------------------------------------------
-------2--4----------------------------------------
---------------------------------------------------
---------------------------------------------------

---------------------------------------------------
--4/5-5\-30-4/5--5--5--5--3--0------------------
----------------------------------2----------------
---------------------------------------------------
---------------------------------------------------
---------------------------------------------------
A       D           E
I'll be there for you (Like I've been there before)
---------------------------------------------------
--4/5-5\-30-4/5--5--5--5--3--0------------------
----------------------------------2----------------
---------------------------------------------------
---------------------------------------------------
---------------------------------------------------
A       D           E                             G
I'll be there for you ('Cause you're there for me too)
---------------------------------------------------
-----------------0h1-------------------------------
---2/42/42--4-------4-2-4--2-2-------------------
---------------------------------------------------
---------------------------------------------------
---------------------------------------------------

great song
peace
Comments