Rem - Wendell Gee Chords & Tabs

 

Wendell Gee Chords & Tabs

Rem Chords & Tabs

Version: 1 Type: Bass Tab 0 ratings
1 star 2 stars 3 stars 4 stars 5 stars
comments

Wendell Gee Bass Tab

REM
WENDELL GEE
(Bass Tab)

From: Ralf Siemon (siemon@Mathematik.Uni-Marburg.DE)

                           G|--------|
                           D|--------|
                           A|--------|
                           E|------3-|

verse:

G|--------|--------|--------|--------|
D|--------|--0-2-3-|0------0|2-0-----|
A|3-------|3-------|--------|----320-|
E|--------|--------|--------|--------|

G|--------|--------|--------|--------|
D|--------|--------|5------5|0---0---|
A|--------|5------5|--------|-----32-|
E|3------3|--------|--------|--------|

G|--------|--------|--------|--------|
D|--------|--0-2-3-|0------0|2-0-----|
A|3-------|3-------|--------|----320-|
E|--------|--------|--------|--------|

G|--------|--------|--------|--------|
D|--------|--------|5------5|0---0-2-|
A|--------|5------5|--------|--------|
E|3------3|--------|--------|--------|

chorus:
[ Tab from: http://www.guitartabs.cc/tabs/r/rem/wendell_gee_btab.html ]
G|--------|--------|--------|--------|
D|3-------|3--32-0-|-------0|2-------|
A|-------3|--------|3-----3-|----2---|
E|--------|--------|--------|--------|

G|--------|--------|--------|--------|
D|3-------|3--32-0-|--------|--------|
A|-------3|--------|3---320-|------2-|
E|--------|--------|--------|3-------|
                             ********

verse

chorus 2x: 1. play this    G|--------|
              instead of   D|--------|
              (***)        A|--------|
                           E|3---3---|

          2.  play this    G|--------|
                           D|--------|
                           A|----2---|
                           E|3-------|

interlude: same as verse

chorus 4x: 3x with         G|--------|
                           D|--------|
                           A|--------|
                           E|3---3---|

           and end on      G|--------|--||
                           D|--------|--||
                           A|----2---|3-||
                           E|3-------|--||

each '-' represents one beat



Comments