Rem - Second Guessing Chords & Tabs

 

Second Guessing Chords & Tabs

Rem Chords & Tabs

Version: 1 Type: Bass Tab 0 ratings
1 star 2 stars 3 stars 4 stars 5 stars
comments

Second Guessing Bass Tab

REM
SECOND GUESSING (Bass Tab)

From: Claar Andrew CDT (x84960c1@cadet1.usma.edu)


Intro
G-----------------------------------
D--2-2-2-------2-2-2----------------
A--------4-4-4-------4-4-4----------
E-----------------------------------

Verse     "Why're you tryin' to second guess me..."
G--------------------------------------------------------1-2-1-----
D----------------------------------------------------4-4-------4-2-
A-----2-2--4-2-0-2------2-2-0-0----------2-2-4-2-0-2---------------
E-0-0---------------0-0---------4-4--0-0---------------------------
[ Tab from: http://www.guitartabs.cc/tabs/r/rem/second_guessing_btab.html ]
          "Oh, oh, oh..."
G------------------------------------
D------------------------------------
A-0--2--0----0--2--0----0--2--0------
E---------3----------2---------------

          "Here we are, here we are..."
G-----------------------------------------------
D---------------------------------------2-2-2--2
A--5-5-5-------5-5-5----------------------------
E--------5-5-5-------5-5-5-----0-0-0--0---------
                              |-First time only|

Ending
G--------------------------------------------------------
D-----------------------------------------------------2--
A------2-2-4-2-0-2------2-2-4-2-0-2------2-2-4-2-0-2-----
E--0-0--------------0-0--------------0-0-----------------



Comments