Rem - Photograph Chords & Tabs

 

Photograph Chords & Tabs

Rem Chords & Tabs

Version: 1 Type: Bass Tab 0 ratings
1 star 2 stars 3 stars 4 stars 5 stars
comments

Photograph Bass Tab

REM
Photograph
Bass Tab by Joshua J.B. Smith

(*NOTE*: No allowances have been made for the rhythm; listen
to the song and you should be able to figure it out)


Verse:
G:------------------------------------------------------|
D:---6-----4----------------------4------------4--------|
A:4-----2-----0--0-----0--h2--h4-----0--2--h4-----0--2--|
E:------------------0-----------------------------------|

[ Tab from: http://www.guitartabs.cc/tabs/r/rem/photograph_btab.html ]
Pre-chorus "Was she willing...":
G:--------------------------------------------|
D:2--2--2\1--------------2--4--4--4--2--0--0--|
A:-----------2--2--2--4-----------------------|
E:--------------------------------------------|


Chorus "A big smile...":
G:---|---------------------------------------------2--4--
D:---|2--2--------0--0--------4--4--4--4--2--0--0--------
A:2--|------2--0--------2--0-----------------------------
E:---|---------------------------------------------------

---------------------------------------------------------|
2--2--2-----0--0--------------------2--2--2-----2--2--2--|
---------0--------2--0-----------------------2-----------|
------------------------5--5--5--5-----------------------|

Comments