Rem - Orange Crush Chords & Tabs

 

Orange Crush Chords & Tabs

Rem Chords & Tabs

Version: 2 Type: Tab 0 ratings
1 star 2 stars 3 stars 4 stars 5 stars
comments

Orange Crush Tab

Ive listened to this song hundreds of times and im pretty sure this tab is correct.
The parts to the songs are tabbed separatly and then the order is at the bottom.

Standard tuning (from the bottom: E, A, D, G, B, E), guitar 1 : clean   guitar 2 : 
(gain approx. half)
******************************************************************************************
|Intro
|
|Guitar 2
|0000
|5555
|4444
|----
|----
|----  x4 really fast

|Verse riff
|
|Guitar 1
|0---0----0---0---0------------0-------|
|-0--------0----0--3--0-----3----3-0-3-|
|------------------------0-2-----------|
|--------------------------------------|
|--------------------------------------|
|--------------------------------------|
|
|Guitar 2
|---------------------------------------|
|---------------------------------------|
|---------------------------------------|
|2---------------------------------xxxx-|
|2---------------------------------xxxx-|
|0---------------------------------xxxx-|
[ Tab from: http://www.guitartabs.cc/tabs/r/rem/orange_crush_tab_ver_2.html ]
|Chorus riff
|
|Guitar 1
|---0---0---0---0---2---2---2---2-|
|-5---5---4---4---2---2---4---4---|
|4-4---4-4-4---4-4-4---4-4-4---4--|
|---------------------------------|
|---------------------------------|
|---------------------------------|
|
|Guitar 2
|---------------------------------|
|---------------------------------|
|--------44444444--------44444444-|
|22222222444444444444444444444444
|22222222222222224444444422222222
|00000000--------22222222--------

|Bridge (bass only - guitar 1 come in on 5th bar with harmonics solo)
|
|Guitar 1 (all harmonics)
|-----12---------------------------|
|12-----------------12--------7----|
|---------------7--------12------7-|
|--------------------------7-------|
|----------------------------------|
|----------------------------------|  x2

|Interlude
|
|Guitar 2
|0000
|5555
|4444
|----
|----
|----  x2 really fast


Order
**********************
- Intro
- Verse riff x6
- Chorus riff x2
- Verse riff x6
- Chorus riff x2
- Bridge
- Interlude
- Verse riff x6
- Chorus riff x4
- Outro (same as interlude)
**********************
******************************************************************************************
Feel free to email me @ green_onions28
Comments