Rem - Near Wild Heaven Chords & Tabs

 

Near Wild Heaven Chords & Tabs

Rem Chords & Tabs

Version: 1 Type: Bass Tab 1 rating
1 star 2 stars 3 stars 4 stars 5 stars
comments

Near Wild Heaven Bass Tab

Artist - Rem
Album - Out Of Time
Song - Near Wild Heaven

One of my favorite R.E.M. songs, and i think its right! Please rate!

Intro

|-----------------------|--------------------------------|
|-----------------------|-0-1-2---2--2-2---2--2----5-4---|
|-5---5--5--------------|----------------2---------------|
|----------3-4-5---5--5-|--------------------------------|

|-----------------------|-----------------------------|
|-----------------------|-0-1-2---2--2-2---2--2-2-----|
|-5---5--5--------------|----------------2--------2---|
|----------3-4-5---5--5-|-----------------------------|

Verse

|--------------------------|---------------------------|   \
|-----------4--5---5--5--4-|-----------4--5---5--5-5---|    |
|-0---0--0-----------------|-0---0--0------------------|    |
|--------------------------|---------------------------|    |
                                                            |   x2
|--------------------------|--------------------------|     |
|--4---4--4--0--5---5--5-5-|--4---4--4--0--5---5--5-5-|     |
|--------------------------|--------------------------|     | 
|--------------------------|--------------------------|    /

Pre-Chorus

|--------------------|
|--0---5--4--2--5----|
|--------------------|
|--------------------|

Chorus

|-----------------------|--------------------------------|
|-----------------------|-0-1-2---2--2-2---2--2----5-4---|
|-5---5--5--------------|----------------2---------------|
|----------3-4-5---5--5-|--------------------------------|

|-----------------------|-----------------------------|
|-----------------------|-0-1-2---2--2-2---2--2-2-----|
|-5---5--5--------------|----------------2--------2---|
|----------3-4-5---5--5-|-----------------------------|

Verse
[ Tab from: http://www.guitartabs.cc/tabs/r/rem/near_wild_heaven_btab.html ]
|--------------------------|---------------------------|   \
|-----------4--5---5--5--4-|-----------4--5---5--5-5---|    |
|-0---0--0-----------------|-0---0--0------------------|    |
|--------------------------|---------------------------|    |
                                                            |   x2
|--------------------------|--------------------------|     |
|--4---4--4--0--5---5--5-5-|--4---4--4--0--5---5--5-5-|     |
|--------------------------|--------------------------|     | 
|--------------------------|--------------------------|    /

Pre-Chorus

|--------------------|
|--0---5--4--2--5----|
|--------------------|
|--------------------|

Chorus

|-----------------------|--------------------------------|  
|-----------------------|-0-1-2---2--2-2---2--2----5-4---|   
|-5---5--5--------------|----------------2---------------|   
|----------3-4-5---5--5-|--------------------------------| x3  
                                                             
|-----------------------|-----------------------------|      
|-----------------------|-0-1-2---2--2-2---2--2-2-----|      
|-5---5--5--------------|----------------2--------2---|      
|----------3-4-5---5--5-|-----------------------------|     

Verse

|---------------------------|
|---------------------------|
|---------------------------|
|--5---5--5--5--3---3--3--3-| x 4

Pre-Chorus

|--------------------|
|--0---5--4--2--5----|
|--------------------|
|--------------------|

Chorus

(4 Bar Rest)
|-----------|----------|----------|----------|
|-----------|----------|----------|----------|
|-5---------|----------|----------|----------|
|-----------|----------|----------|----------|

|-----------------------|--------------------------------|  
|-----------------------|-0-1-2---2--2-2---2--2----5-4---|   
|-5---5--5--------------|----------------2---------------|   
|----------3-4-5---5--5-|--------------------------------| x5  

On 5th Fade Out
                                          
Comments