Rem - Lotus Chords & Tabs

 

Lotus Chords & Tabs

Rem Chords & Tabs

Version: 1 Type: Tab 0 ratings
1 star 2 stars 3 stars 4 stars 5 stars
comments

Lotus Tab

   
As I wasn't satisfied with anything I found on the net And I think the solo is the best part of the song I 
the version that I play.

e---------------------------------------------------------------------|
H---------------------------------------------------------------------|
G--2---2p1p0-(0)-2-5-4---------2p1p0----------------------------------|
D------------------------------------0-2---0--------------------------|
A----------------------------------------------3-3---2-2--0-0-----0-2-|
E-------------------------------------------------------------3-------|
[ Tab from: http://www.guitartabs.cc/tabs/r/rem/lotus_tab.html ]
e-------------------------------------------------------------|
H-------------------------------------------------------------|
G--2p1p0-(0)-2-5-4----5-7---5--7/9---7-7---5-5---4-4-2---0-2--|
D-------------------------------------------------------------|
A-------------------------------------------------------------|
E-------------------------------------------------------------|

Note: the note in brackets means that I'm not sure if it is played there.


You can find the chords anywhere (Am, C, G, F - verse
				  Am, Dm, Am, Dm, Am, Dm, E, Am - chorus (I hope))


As usual, (due to the lack of guitars) I was writing this from my head and I hope there won't occure any 
Anyway, listen to the CD to catch he right rhythm.

Hope you'll like it. If there were any mistakes or comments, mail to kusnir@gjh.sk
Comments