Rem - Losing My Religion Chords & Tabs

 

Losing My Religion Chords & Tabs

Rem Chords & Tabs

Version: 4 Type: Tab 1 rating
1 star 2 stars 3 stars 4 stars 5 stars
comments

Losing My Religion Tab

Band Name: R.E.M
Song Name: Losing my religion
Tabbed By: Terry Sims (Masterofdarknes)
Email: Floyd_Fan@teenspot.com

Tuning: Normal

Intro

--12--10--12--10---------------------------------12--10--12--10-----|
------------------10----10-----10--10--8----10-------------------10-|
------------------------10-----10--10--10---10----------------------|
------------------------10-----10--10--10---10----------------------|
--------------------------------------------------------------------|
--------------------------------------------------------------------|

-------------------------------12--10--12--10-----------------------|
--10----10--10--10----10--10-------------------10---10--10--10--10--|
--9-----9---9---7-----9---9-------------------------9---9---9---7---|
--10----10--10--10----10--10------------------------10--10--10--10--|
--------------------------------------------------------------------|
--------------------------------------------------------------------|
[ Tab from: http://www.guitartabs.cc/tabs/r/rem/losing_my_religion_tab_ver_4.html ]
--------------------------------------------------------------------|
--8------------------10---8-----------------------------------------|
--7----------7---9------------9---7---------------------------------|
--9-----------------------------------------------------------------|
-------10-----------------------------------------------------------|
--------------------------------------------------------------------|

Interlude

--12-12-12-10-10-10-10-10-------------------------------------------|
---------------------------13-13-13-10-10-10-10-10------------------|
--------------------------------------------------------------------|
--------------------------------------------------------------------|
--------------------------------------------------------------------|
--------------------------------------------------------------------|

--12-12-12-12-10-10-------------------------------------------------|
---------------------13-10--------------10--8-----------------------|
----------------------------------7--9---------9--7-----------------|
--------------------------------------------------------------------|
------------------------------10------------------------------------|
--------------------------------------------------------------------|
Comments