Rem - Losing My Religion Chords & Tabs

 

Losing My Religion Chords & Tabs

Rem Chords & Tabs

Version: 2 Type: Bass Tab 0 ratings
1 star 2 stars 3 stars 4 stars 5 stars
comments

Losing My Religion Bass Tab

This is a really good song from Rem, and fun to play.
I added in the time just to make it easier :-)

Intro (00:00)

|---------------------------0--0--2-2---------------|
|--0-2-0---3--3-3--3--0--0---------------------0--2-|
|--------0-------------------------------2--3-------|
|---------------------------------------------------|

|------------------0--0--2-2-----------|
|-3--3-3--3--0--0----------------------|
|-----------------------------0--------|
|----------------------------------3---|

Verse (00:16)

|-----------------------------------------|
|-----------------------2-----------------|
|--0--0-0--0--0----0--3-------------------|
|---------------3----------2---3---0--3---| x2

|--------------------------------------------------------------0--0-0--0---|
|-----------------------2---------2--1--0--0-0--0--0--0--0--0--------------|
|--0--0-0--0--0----0--3----------------------------------------------------|
|---------------3----------2---3-------------------------------------------|



|-----------------------------------------|
|-----------------------2-----------------|
|--0--0-0--0--0----0--3-------------------|
|---------------3----------2---3---0--3---| x2

|--------------------------------------------------------------0--0-0--0---|
|-----------------------2---------2--1--0--0-0--0--0--0--0--0--------------|
|--0--0-0--0--0----0--3----------------------------------------------------|
|---------------3----------2---3-------------------------------------------|

Chorus (01:16)

|---------------------------0--0--2-2---------------|
|--0-2-0---3--3-3--3--0--0---------------------0--2-|
|--------0-------------------------------2--3-------|
|---------------------------------------------------|

|------------------0--0--2-2-----------|
|-3--3-3--3--0--0----------------------|
|-----------------------------0--------|
|----------------------------------3---|

Verse (01:32)

|-----------------------------------------|
|-----------------------2-----------------|
|--0--0-0--0--0----0--3-------------------|
|---------------3----------2---3---0--3---| x2
[ Tab from: http://www.guitartabs.cc/tabs/r/rem/losing_my_religion_btab_ver_2.html ]
|--------------------------------------------------------------0--0-0--0---|
|-----------------------2---------2--1--0--0-0--0--0--0--0--0--------------|
|--0--0-0--0--0----0--3----------------------------------------------------|
|---------------3----------2---3-------------------------------------------|


|-----------------------------------------|
|-----------------------2-----------------|
|--0--0-0--0--0----0--3-------------------|
|---------------3----------2---3---0--3---| x2

|--------------------------------------------------------------0--0-0--0---|
|-----------------------2---------2--1--0--0-0--0--0--0--0--0--------------|
|--0--0-0--0--0----0--3----------------------------------------------------|
|---------------3----------2---3-------------------------------------------|

Chorus  (02:33)

|---------------------------0--0--2-2---------------|
|--0-2-0---3--3-3--3--0--0---------------------0--2-|
|--------0-------------------------------2--3-------|
|---------------------------------------------------|

|------------------0--0--2-2-----------|
|-3--3-3--3--0--0----------------------|
|-----------------------------0--------|
|----------------------------------3---|

Bridge (02:49)

|-------------------|--------------------------|
|-------------------|--------------------------|
|-0-----------------|--3----5----3----5--5--3--|
|------3----1----3--|--------------------------|

Verse (03:04)

|-----------------------------------------|
|-----------------------2-----------------|
|--0--0-0--0--0----0--3-------------------|
|---------------3----------2---3---0--3---| x2

|--------------------------------------------------------------0--0-0--0---|
|-----------------------2---------2--1--0--0-0--0--0--0--0--0--------------|
|--0--0-0--0--0----0--3----------------------------------------------------|
|---------------3----------2---3-------------------------------------------|

Chorus (03:34)

|-----------| |------------------0--0--2-2---------------|
|--0-2-0----| |-3--3-3--3--0--0---------------------0--2-|
|--------0--| |-------------------------------2--3-------|
|-----------| |------------------------------------------| x3

|------------------0--0--2-2-----------|
|-3--3-3--3--0--0----------------------|
|-----------------------------0--------|
|----------------------------------3---|

Outro (04:06)

|-------------------------------------|
|-------------------------------------|
|-------------------------------------|
|--5------3--5-------3--5------3--5---|
Comments