Rem - Ignoreland Chords & Tabs

 

Ignoreland Chords & Tabs

Rem Chords & Tabs

Version: 1 Type: Bass Tab 0 ratings
1 star 2 stars 3 stars 4 stars 5 stars
comments

Ignoreland Bass Tab

Band:  R.E.M.
Song: Ignoreland
Bassist: Peter Buck
Album: Automatic for the People
Track: 8


Intro:

G|-----7----7----7----7----7---5--7-5-----5-7---7---7---7---7----7--57------|
D|--------------------------5h7------7---7-------7---7---7---7--------------|
A|-5-55---55---55---55---55-------------------55--55--55--55----5------0~---|
E|--------------------------------------------------------------------------|

2nd Part of Intro:

G|--------------------------------------|
D|--------------------------------------|
A|-5--3-0~--5--3-5~--5--3-0~---5~-----3-|..
E|---------------------------------3-5--|

Verse: (Those bastards stole their power from...)

G|------------------------------------------------------------------------|x4
D|------------------------------------------------------------------------|
A|-3h5-5-53-3h5-5-53-3h5-5-53--5/77-7-75----------------------------------|
E|------------------------------------------------------------------------|

Part 2:(They hypnotized the summer...)
[ Tab from: http://www.guitartabs.cc/tabs/r/rem/ignoreland_btab.html ]
G|-------------/9-7-------------/7-7---------------5h7----------------------|
D|-5--55--5-77------5--55--5-77------5--55--5-77--7-------------------------|
A|--------------------------------------------------------------------------|
E|--------------------------------------------------------------------------|

Prechorus: (I'm not sure if this is right, but it works)

G|----7---7---7---7---7---5--75-------7---7---7---7---7---7-----------------|
D|---7---7---7---7---7---7--7---7-7--7---7---7---7---7---7------------------|
A|-55--55--55--55--55--55----------55--55--55--55--55--55-------------------|
E|--------------------------------------------------------------------------|

Chorus:

G|---7----------7----------7--------------|
D|----------------------------------------|
A|-5--3-0~----5--3-5~----5--3-0~----5~----|
E|----------------------------------------|

Verse x4

Part 2 x1

Prechorus x1

Chorus x1

Bridge:

G|-----------------------------4--------------------------------------------|
D|----------------------------4---------3-----------------------------------|
A|-3--3~--3--3~--2--2~--2--2-2----1--1~--1--1~----0-0-0-0-00000000----------|
E|--------------------------------------------------------------------------|

Verse x4

Part 2 x1

Prechorus x1

And then Chorus until the end.. fading out...

And there it is, he puts fills in sometimes randomly just so you know.  But thats it almost 100% sure.


This is my first tab so go easy, but please rate this.
Comments