Rem - I Took Your Name Chords & Tabs

 

I Took Your Name Chords & Tabs

Rem Chords & Tabs

Version: 1 Type: Tab

I Took Your Name Tab

verse

e|----|-------------------|
b|----|-------------------|
g|----|-------------------|
d|-7~-|--7-7--7-7--9-9----|
a|-5~-|--5-5--5-5--7-7----|
e|----|-------------------|
          ^ten times


chorus

e|-----------------------------------------|
b|---------------------------3-5-5-3-------|
g|-----------------------2-4---------4-2-4-|
d|-5~--7-7-7-7--9-9---5~-------------------|
a|-3~--5-5-5-5--7-7---3~-------------------|
e|-----------------------------------------|


solo

guitar1:
[ Tab from: http://www.guitartabs.cc/tabs/r/rem/i_took_your_name_tab.html ]
e|------------------------------------------|
b|-----3-5-5-3------------------------------|
g|-2-4---------4-2-4--12b~--10b~--12b~--9b~-|
d|------------------------------------------|
a|------------------------------------------|
e|------------------------------------------|

guitar2:

e|-------------------------------------|
b|-------------------------------------|
g|-------------------------------------|
d|-9\--11-11-11-11-11-11--7-7-7-7--9-9-| twice
a|-7\--9--9--9--9--9--9---5-5-5-5--7-7-|
e|-------------------------------------|

solo ending
e|-------------------------|
b|---------3-5-5-3---------|
g|-----2-4---------4-2-4---|
d|-5~----------------------| twice
a|-3~----------------------|
e|-------------------------|