Rem - I Believe Chords & Tabs

 

I Believe Chords & Tabs

Rem Chords & Tabs

Version: 1 Type: Bass Tab 0 ratings
1 star 2 stars 3 stars 4 stars 5 stars
comments

I Believe Bass Tab

REM
I Believe
Transcribed by Will B. (willyhead2000@usa.net)

Verse:
--------------------
----3-----3---2h3---  x whatever
------------------3-
--------------------

Then						2nd Time Add:
---------------------------   -------------------------------------------------0
---------------------------   -----------0-2----------------------------------7-
--1-1-1-1-1-0--------------   -0-3-3-3-3------0-0-0-0---0-1-1-1-1-0-1-3-3-3-7---
----------------3-3-3-3-3--   ------------------------3-------------------------
[ Tab from: http://www.guitartabs.cc/tabs/r/rem/i_believe_btab.html ]
Chorus:
--------------------------------------------------------------------------------
--------7-8--10---------------------------7-8--10-------5--5--3h5-5-5---8--8-8-8
-8----8-----------8----8--6-5------8----8---------------------------------------
-------------------------------8------------------------------------------------

Bridge
                                          3rd time add:      
------------------------------        ---------------0---
--0--0--3-2-0-----------------  X 3   -------------7----- Goto Chorus
--------------3-0-1--1---0-1--        -3-3-3-3---7-------
------------------------------        -------------------

End on open D   ----
	          --0-	
	          ----
	          ----


Comments