Rem - Half A World Away Chords & Tabs

 

Half A World Away Chords & Tabs

Rem Chords & Tabs

Version: 1 Type: Bass Tab 0 ratings
1 star 2 stars 3 stars 4 stars 5 stars
comments

Half A World Away Bass Tab

REM
Half A World Away    ( Bass )
   Transcribed by Will B. (willyhead2000@usa.net) 

Key:       /  =  Hammer on

Intro

/----------------------------------------------------/
/----------------------------------------------------/
/------7---0/7----5----5/7-----------------7---------/	Play this once and 
/-------------------------------5--0/5---------------/ then continue with Verse


 Verse

/----------------------------------------------------------------------
/-------------------5---5/7--------------------------------------------
/---00----55------------------5------0-5------5/7---7-----33----55-----
/----------------------------------------------------------------------

/-------------------------------------/
/---5----5/7--------------------------/    Play ?????
/-------------------5---5---5/7----7--/    times
/-------------------------------------/

 
Chorus
[ Tab from: http://www.guitartabs.cc/tabs/r/rem/half_a_world_away_btab.html ]
/----------------------------------------------------
/----3---3--0/3---3---0-------3---3--0/3---3---0-----
/----------------------------------------------------
/----------------------------------------------------

/-----------------------------------------------------/
/-----------------------------------------------------/     Play ?????
/---5---5---0/5---5---0---5--5---0/5----5---0---------/     times
/-----------------------------------------------------/



Fill between Chorus and Verse

/-------------------------------------------------/
/----5------5----5/7------------------------------/
/--------------------------5------5------5/7---7--/
/-------------------------------------------------/

 Ending

/-------------------------------------------/
/-------------------------------------------/
/----------------------5--------------------/
/------5--------------------------------3---/




Comments