Rem - Funtime Chords & Tabs

 

Funtime Chords & Tabs

Rem Chords & Tabs

Version: 1 Type: Bass Tab 0 ratings
1 star 2 stars 3 stars 4 stars 5 stars
comments

Funtime Bass Tab

   
REM
FunTime (by Iggy Pop and David Bowie)

Bass Tab by Dave Silverstone

Basic Intro and Verse Riff:
    D                     C      D                     C
                                 FUN!
G-|----------------------------------------------------------
D-|----------------------------------------------------------
A-|-5--5--5-5-5-5--5--5--5-2-3-4-5--5--5-5-5-5--5--5--5-2-3-4
E-|----------------------------------------------------------
[ Tab from: http://www.guitartabs.cc/tabs/r/rem/funtime_btab.html ]
Then straight into the refrain:
   Bm             C             D
G-|----------------------------------------------------------
D-|----------------------------------------------------------
A-|1--1-1--1-1-1--3--3-3--3-3-3--5--5--5-5-5-5--5--5-5-5-5---
E-|----------------------------------------------------------

Bridge:
G-|-----------------------------------------------------
D-|-----------------------------------------------------
A-|-3--3-3--3-3-3--5--5--5-5-5--7--7--7--7--7-5---------
E-|---------------------------------------------7-5-3-0-

                                                    FUN!
G-|----------------------------------------------------
D-|----------------------------------------------------
A-|-7--7--5h7--7-7-7-5-------7-7-5-5h7-7-7-7-5-------5-
E-|--------------------7-5-3-0-----------------7-5-3---

Ending: Just wing that mother!

Comments