Rem - Finest Worksong Chords & Tabs

 

Finest Worksong Chords & Tabs

Rem Chords & Tabs

Version: 3 Type: Bass Tab 0 ratings
1 star 2 stars 3 stars 4 stars 5 stars
comments

Finest Worksong Bass Tab

right this has such a wel gd bass line cept only lik 1 prson had tabbed it an it woznt 
an there woz stuf rong so im tryin 2 fix it

its th other mix tho off th best of albem so it mite be a bit diff

intro
G-19--7------------|
D--------0---------|
A------------------|
E------------2-----|

muck about in th verse it dont rely matta wot u play as long as its jus A an B

verse
A-0-2-2-0-2-0-2-0-2 or sumfin lik it
[ Tab from: http://www.guitartabs.cc/tabs/r/rem/finest_worksong_btab_ver_3.html ]
chorus
G ------------------------------------------------------------|
D-2-2--4--4-4-4-4-4-4-4-4-4-4-4-2-2--4--4-4-4-4-4-4-4-4-4-4-4-|
A-------------------------------------------------------------|
E-------------------------------------------------------------|

bridge
A-0- hold on

or if u wont 2 do piano part itll sound gd on bass

D-0---------------------------|
A---2----------5-4-2----------|
E------0--------------0-------|  and repeat


and uv got 2 slap th ending or it dont sound right

end
G------------4---------------2---------------4--------------4-2--|
D----------------------------------------------------------------|
A-0-2-2-0-2-------0-2-2-0-2-------0-2-2-0-2-------0-2-2-0-2------|
E----------------------------------------------------------------|

end with
G-------|
D-------|
A-------|
E--7\---|
Comments