Rem - Everybody Hurts Chords & Tabs

 

Everybody Hurts Chords & Tabs

Rem Chords & Tabs

Version: 3 Type: Tab 0 ratings
1 star 2 stars 3 stars 4 stars 5 stars
comments

Everybody Hurts Tab

   
EVERYBODY HURTS --- REM


Thumb:           T
Index Finger:   I
Middle Finger: M
Ring Finger:    R
Pinky Finger:  P

through this song, there is no actual struming, so for the chords, only play the first note, then the last 
using this picking pattern:  ---T---I---M---R---M---I   : |

Hope u get it, this is my first song to tab.... e-mail me at: stevevan88@hotmail.com
Sorry about the other one, and i am not too sure that this one will turn out either... if it doesn't, put 
into your notepad and it should work

Intro ----------

 A                                                                    G
e --------------2---------------------2-------------------------------2-------------------------2---------|
B ----------3------3--------------3-------3---------------------2--------2----------------2--------2------|
G ------2--------------2------2--------------2-------------0-----------------0--------0----------------0--|
D --0----------------------0------------------------------------------------------------------------------|
A --------------------------------------------------------------------------------------------------------|
E -------------------------------------------------------3---------------------------3--------------------|

A                                   G                                                    A                 
                            G                   A        G
When the day is long and the night, the night is yours alone,  when you're sure you've had enough of this 
well hang on.
[ Tab from: http://www.guitartabs.cc/tabs/r/rem/everybody_hurts_tab_ver_3.html ]
e -------------------------------------------------------------------------------|
B--------------------------------------------------------------------------------|
G -------------------------------------------------------------------------------|
D -------------------------------------------------------------------------------|
A -------------------------------------------------------------------------------|
E ----3----2----0----------------------------------------------------------------|


E                          A   E              A      E                       A    (MUTE)
Don't let yourself go, everybody cries and everybody hurts sometimes.
D                                             G D                                     G
Sometimes everything is wrong. Now it's time to sing along.
D                                  G                      D
When your day is night alone, (hold on, hold on)
                              G             D
if you feel like letting go, (hold on)
                                                    G                 D    G
when you think you've had too much of this life, well hang on.


... etc

Here are the lyrics for the rest of it:

Everybody hurts. Take comfort in your friends.
Everybody hurts. Don't throw your hand. Oh, no. Don't throw your hand.
If you feel like you're alone, no, no, no, you are not alone

If you're on your own in this life, the days and nights are long,
when you think you've had too much of this life to hang on.

Well, everybody hurts sometimes,
everybody cries. And everybody hurts sometimes.
And everybody hurts sometimes. So, hold on, hold on.
Hold on, hold on. Hold on, hold on. Hold on, hold on. (repeat & fade)
(Everybody hurts. You are not alone.)
Comments