Rem - Endgame [instrumental] Chords & Tabs

 

Endgame [instrumental] Chords & Tabs

Rem Chords & Tabs

Version: 1 Type: Bass Tab 1 rating
1 star 2 stars 3 stars 4 stars 5 stars
comments

Endgame [instrumental] Bass Tab

Another amazing song from R.E.M. 
Pretty sure this tab is correct. Please rate it!

I have given a clue about the timing from how far apart the numbers are. But you can proberly work it out for yourself ;-D
I split up the tab just to make it easier to read.

Intro (00:00)

|-----------------------1-2--- -------------------------|
|--------0-2-0--2------------- --------0-2-0--2---------|
|-0-2-3----------------------- -0-2-3-------------------|
|------------------0---------- ------------------0--4-5-|

Verse (00:10)

|-----------------------1-2--- -------------------------|
|--------0-2-0--2------------- --------0-2-0--2---------|
|-0-2-3----------------------- -0-2-3-------------------|
|------------------0---------- ------------------0--4-5-| x3

Chorus (00:44)

|---------2-4--------------2-4----------------|
|-0--0--4-----4--2--0-0--4-----4-44--22-00----|
|---------------------------------------------|
|---------------------------------------------|

|-----2-4------------------------------------------------|
|-0-4-------4--4--2--2--0--0-----2--2-2-2-2---2--2-2-2-2-|
|------------------------------2------------2------------|
|--------------------------------------------------------|

Verse (01:07)

|-----------------------1-2--- -------------------------|
|--------0-2-0--2------------- --------0-2-0--2---------|
|-0-2-3----------------------- -0-2-3-------------------|
|------------------0---------- ------------------0--4-5-| x3

Chorus (01:40)
[ Tab from: http://www.guitartabs.cc/tabs/r/rem/endgame_instrumental_btab.html ]
|---------2-4--------------2-4-------------|
|-0--0--4-----4--2--0-0--4-----4-44-22-00--|
|------------------------------------------|
|------------------------------------------|

|-----2-4---------------------- ------------6------------------|
|-0-4-------4--4--2--2--0--0--- ----------4----4-5---5--4-5-4--|
|------------------------------ -0-2-4--4----------------------|
|------------------------------ -------------------------------|

|-------------------------------6--------------------------------|
|-2--2-2-4-2------------------4----4-5--5-4-5-4--2--2-0-2-22-2---|
|--------------5--5-0-5--4--4------------------------------------|
|----------------------------------------------------------------|

Verse (02:20)

|-----------------------1-2--- -------------------------|
|--------0-2-0--2------------- --------0-2-0--2---------|
|-0-2-3----------------------- -0-2-3-------------------|
|------------------0---------- ------------------0--4-5-| x3

Chorus (02:53)

|---------2-4--------------2-4--------------|
|-0--0--4-----4--2--0-0--4-----4-44--22-00--|
|-------------------------------------------|
|-------------------------------------------|

|-----2-4--------------------------------------|
|-0-4-------4--4--2--2--0--0-----2--2-2---2----|
|------------------------------2--------2------|
|----------------------------------------------|

|---------2-4--------------2-4--------------|
|-0--0--4-----4--2--0-0--4-----4-44--22-00--|
|-------------------------------------------|
|-------------------------------------------|

|-----2-4----------------------------------------------------------|
|-0-4-------4--4--2--2--0--0-0----2--2-2-2-2-2--2-2-2---2-2--0-----|
|-------------------------------2---------------------2------------|
|------------------------------------------------------------------|
Comments