Rem - Cuyahoga Chords & Tabs

 

Cuyahoga Chords & Tabs

Rem Chords & Tabs

Version: 1 Type: Bass Tab 0 ratings
1 star 2 stars 3 stars 4 stars 5 stars
comments

Cuyahoga Bass Tab

REM - Cuyahoga
 
By Pete Gethin (battlecat2000@hotmail.com)
 
One of the best REM songs, one of the easiest. 
Well the beginning anyway.....help me with the rest
or I'll burn ya!
 
Intro (also later)
 
 Let it RIIIINNNGGGGG, it's easy and sounds nice.
 
G---2----2------7----7-7-------4----4\--7-7---7-7---7
D-0----0---0--5----5-----5-/-2----2--\5-----5-----5--
A----------------------------------------------------
E----------------------------------------------------
 
Verse
 
same sound as the intro but only with the D string notes.
Diddle about a bit.
 
G--------------------------------
D---------5--5-5----------5--5-5-
A-5--5-5----------7--7-7---------
E--------------------------------
 
The rest? I don't know, I fiddle about but can't get it.


[ Tab from: http://www.guitartabs.cc/tabs/r/rem/cuyahoga_btab.html ]
Comments