Rem - Carnival Of Sorts Chords & Tabs

 

Carnival Of Sorts Chords & Tabs

Rem Chords & Tabs

Version: 1 Type: Bass Tab 0 ratings
1 star 2 stars 3 stars 4 stars 5 stars
comments

Carnival Of Sorts Bass Tab

   
REM
Carnival of sorts

From: Graham Woodhouse (woodhogj@aston.ac.uk)


The verse goes something like this...

  Bm  A     D   G       A
G-----------------------------------------
D---------------5-5-5-6-7--7-7--7-7-5-7--7
A-2-2-0-3-4-5-5---------------------------
E-----------------------------------------
[ Tab from: http://www.guitartabs.cc/tabs/r/rem/carnival_of_sorts_btab.html ]
Pre-chorus...

  G   A   Bm  A   G     A
G----------------------------
D----------------------------
A---------2-2----------------
E-3-3-5-5-----5-5-3-3-3-5-5-5

Chorus
  Bm  G   A   (Walk back to the Bm)
G-------------------
D-------------------
A-2-2----------5-3--
E-----3-3-5--5------

Comments