Rem - Bittersweet Me Chords & Tabs

 

Bittersweet Me Chords & Tabs

Rem Chords & Tabs

Version: 1 Type: Bass Tab 0 ratings
1 star 2 stars 3 stars 4 stars 5 stars
comments

Bittersweet Me Bass Tab

REM
Bittersweet Me

Bass Tab by Joshua J.B. Smith


Verse:
G:---------------------------0-----2--
D:0-----0--0-----2--------------------
A:------------2-----------------------
E:------------------------------------

----------------------------------
---0--2---------0-----0--0-----2--
----------------------------2-----
----------------------------------

----0-----2-----4----------|-----|
-------------------2-------|--0--|
---------------------------|-----|
---------------------------|-----|



Pre-Chorus:
G:-----------------------------
D:--3-----3--3-----------------
A:--------------3--1-----1--1--
E:-----------------------------
[ Tab from: http://www.guitartabs.cc/tabs/r/rem/bittersweet_me_btab.html ]
--------------------------------------|
--------0-----------------------0--2--|
--0-----------0--3-----3--3--3--------|
--------------------------------------|



Chorus:
G:--------------------0----0--------
D:-----------------0----------2--0--
A:--0-----2--3----------------------
E:----------------------------------

-----------------------------------------|
-----------------0-----------------------|
--0-----2--3--------------------0--2--0--|
--------------------3-----3--3-----------|


                                      
End of Chorus:
G:-----------------------------------|
D:--3--------2--------0--------------|
A:-----------------------------3--2--|
E:-----------------------------------|



Ending:

G:--------------
D:--------------
A:-0--h2--h3--h5
E:--------------


Comments