Rem - Bad Day Chords & Tabs

 

Bad Day Chords & Tabs

Rem Chords & Tabs

Version: 2 Type: Bass Tab 0 ratings
1 star 2 stars 3 stars 4 stars 5 stars
comments

Bad Day Bass Tab

Tabbed By : Listentothebass

Album: In Time 1988-2003

Tuning: EADG

It would be nice if you guys would rate this tab and for instance write a little comment.

Have fun playing this lovely song:) 

Bass enters at 0:12

Verse 

G|-------------------------------------------|
D|--3-3-3-3----------------------------------|
A|----------3-3-3-3-1-1-1-1-1-1-1-1----------|
E|-------------------------------------------|

G|-------------------------------------------|
D|--3-3-3-3----------------------------------|
A|----------3-3-3-3--------------------------|
E|------------------3-3-3-3-3-3-3-3----------| 

G|-------------------------------------------|
D|--3-3-3-3----------------------------------|
A|----------3-3-3-3-1-1-1-1-1-1-1-1----------|
E|-------------------------------------------|

G|-------------------------------------------|
D|--3-3-3-3----------------------------------|
A|----------3-3-3-3--------------------------|
E|------------------3-3-3-3-3-3-3-3----------| 

0:31 Bridge

G|-------------------------------------------|
D|-------------------------------------------|
A|--3-3-3-3-3-3-3-3-5-5-5-5-1-1-1-1-3-3-3-3--|
E|-------------------------------------------|

G|-------------------------------------------|
D|-------------------------------------------|
A|---3-3-3-3-5-5-5-5-1-1-1-1-0-0-0-0-3-3-3-3-|
E|-------------------------------------------|

0:43

Verse 

G|-------------------------------------------|
D|--3-3-3-3----------------------------------|
A|----------3-3-3-3-1-1-1-1-1-1-1-1----------|
E|-------------------------------------------|

G|-------------------------------------------|
D|--3-3-3-3----------------------------------|
A|----------3-3-3-3--------------------------|
E|------------------3-3-3-3-3-3-3-3----------| 

G|-------------------------------------------|
D|--3-3-3-3----------------------------------|
A|----------3-3-3-3-1-1-1-1-1-1-1-1----------|
E|-------------------------------------------|

G|-------------------------------------------|
D|--3-3-3-3----------------------------------|
A|----------3-3-3-3--------------------------|
E|------------------3-3-3-3-3-3-3-3----------| 


1:03 Bridge

G|-------------------------------------------|
D|-------------------------------------------|
A|--3-3-3-3-3-3-3-3-5-5-5-5-1-1-1-1-3-3-3-3--|
E|-------------------------------------------|

G|-------------------------------------------|
D|-------------------------------------------|
A|---3-3-3-3-5-5-5-5-1-1-1-1-0-0-0-0-3-3-3-3-|
E|-------------------------------------------|

1:15 Chorus

G|---------------------------------------|
D|--3-3-3-3------------------------------|
A|-----------3-3-3-3---------------------|
E|-------------------3-3-3-3-------------|

G|---------------------------------------|
D|--3-3-3-3------------------------------|
A|-----------3-3-3-3---------------------|
E|-------------------3-3-3-3-------------|

G|---------------------------------------|
D|--3-3-3-3------------------------------|
A|-----------3-3-3-3---------------------|
E|-------------------3-3-3-3-------------|

G|---------------------------------------|
D|--3-3-3-3------------------------------|
A|-----------3-3-3-3---------------------|
E|-------------------3-3-3-3-------------|

1:34

Verse 
[ Tab from: http://www.guitartabs.cc/tabs/r/rem/bad_day_btab_ver_2.html ]
G|-------------------------------------------|
D|--3-3-3-3----------------------------------|
A|----------3-3-3-3-1-1-1-1-1-1-1-1----------|
E|-------------------------------------------|

G|-------------------------------------------|
D|--3-3-3-3----------------------------------|
A|----------3-3-3-3--------------------------|
E|------------------3-3-3-3-3-3-3-3----------| 

G|-------------------------------------------|
D|--3-3-3-3----------------------------------|
A|----------3-3-3-3-1-1-1-1-1-1-1-1----------|
E|-------------------------------------------|

G|-------------------------------------------|
D|--3-3-3-3----------------------------------|
A|----------3-3-3-3--------------------------|
E|------------------3-3-3-3-3-3-3-3----------|

1:54 Bridge

G|-------------------------------------------|
D|-------------------------------------------|
A|--3-3-3-3-3-3-3-3-5-5-5-5-1-1-1-1-3-3-3-3--|
E|-------------------------------------------|

G|-------------------------------------------|
D|-------------------------------------------|
A|---3-3-3-3-5-5-5-5-1-1-1-1-0-0-0-0-3-3-3-3-|
E|-------------------------------------------|


2:06 Chorus

G|---------------------------------------|
D|--3-3-3-3------------------------------|
A|-----------3-3-3-3---------------------|
E|-------------------3-3-3-3-------------|

G|---------------------------------------|
D|--3-3-3-3------------------------------|
A|-----------3-3-3-3---------------------|
E|-------------------3-3-3-3-------------|

G|---------------------------------------|
D|--3-3-3-3------------------------------|
A|-----------3-3-3-3---------------------|
E|-------------------3-3-3-3-------------|

G|---------------------------------------|
D|--3-3-3-3------------------------------|
A|-----------3-3-3-3---------------------|
E|-------------------3-3-3-3-------------|

2:26

No bass

2:28

G|-------------------------------------------|
D|--3-3-3-3----------------------------------|
A|----------3-3-3-3-1-1-1-1-1-1-1-1----------|
E|-------------------------------------------|

G|-------------------------------------------|
D|--3-3-3-3----------------------------------|
A|----------3-3-3-3--------------------------|
E|------------------3-3-3-3-3-3-3-3----------| 

2:38 Bridge

G|-------------------------------------------|
D|-------------------------------------------|
A|--3-3-3-3-3-3-3-3-5-5-5-5-1-1-1-1-3-3-3-3--|
E|-------------------------------------------|

G|-------------------------------------------|
D|-------------------------------------------|
A|---3-3-3-3-5-5-5-5-1-1-1-1-0-0-0-0-3-3-3-3-|
E|-------------------------------------------|

2:50 Chorus which repeats till the end of the song

G|---------------------------------------|
D|--3-3-3-3------------------------------|
A|-----------3-3-3-3---------------------|
E|-------------------3-3-3-3-------------|

G|---------------------------------------|
D|--3-3-3-3------------------------------|
A|-----------3-3-3-3---------------------|
E|-------------------3-3-3-3-------------|

G|---------------------------------------|
D|--3-3-3-3------------------------------|
A|-----------3-3-3-3---------------------|
E|-------------------3-3-3-3-------------|

G|---------------------------------------|
D|--3-3-3-3------------------------------|
A|-----------3-3-3-3---------------------|
E|-------------------3-3-3-3-------------|

You are welcome to PM me with corrections if you have any.
Comments