Rem - All The Best Chords & Tabs

 

All The Best Chords & Tabs

Rem Chords & Tabs

Version: 1 Type: Bass Tab 0 ratings
1 star 2 stars 3 stars 4 stars 5 stars
comments

All The Best Bass Tab

   
-------------------------------------------------------------------------------
                             All the Best - R.E.M.
-------------------------------------------------------------------------------
Tabbed by: Mike Kunz
E-mail: rmjk21@embarqmail.com

 ( Intro )

G|-------|
D|-------|
A|-------|
E|-75-75-|

  So over me, so pie in my face
G|-------------------------------------------------------------------------|
D|-------------------------------------------------------------------------|
A|-----------------10-10-10-10-9-9-9-9-----------------10-10-10-10-9-9-9-9-|
E|-7-7-7-7-5-5-5-5---------------------7-7-7-7-5-5-5-5---------------------|

  In my Quasimodo Heart
G|-------------------------------------------------------------------------|
D|-------------------------------------------------------------------------|
A|-----------------10-10-10-10-9-9-9-9-----------------10-10-10-10-9-9-9-9-|
E|-7-7-7-7-5-5-5-5---------------------7-7-7-7-5-5-5-5---------------------|

  Sing it and rhyme
G|-----------------------------------------------------------------|
D|-----------------------------------------------------------------|
A|-7-7-7-7-5-5-5-5-7-7-7-7-5-5-5-5-7-7-7-7-5-5-5-5-----------------|
E|-------------------------------------------------5-5-5-5-3-3-3-3-|

  I hold the mirror up
G|-------------------------------------------------------------------------|
D|-------------------------------------------------------------------------|
A|-----------------10-10-10-10-9-9-9-9-----------------10-10-10-10-9-9-9-9-|
E|-7-7-7-7-5-5-5-5---------------------7-7-7-7-5-5-5-5---------------------|
[ Tab from: http://www.guitartabs.cc/tabs/r/rem/all_the_best_btab.html ]
  In part of your dreams
G|-------------------------------------------------------------------------|
D|-------------------------------------------------------------------------|
A|-----------------10-10-10-10-9-9-9-9-----------------10-10-10-10-9-9-9-9-|
E|-7-7-7-7-5-5-5-5---------------------7-7-7-7-5-5-5-5---------------------|

  Let's sing and rhyme
G|-----------------------------------------------------------------|
D|-----------------------------------------------------------------|
A|-7-7-7-7-5-5-5-5-7-7-7-7-5-5-5-5-7-7-7-7-5-5-5-5-----------------|
E|-------------------------------------------------5-5-5-5-3-3-3-3-|

  ( interlude )
G|----------------------------------------------------------|
D|----------------------------------------------------------|
A|-5-5-5-5-3-3-3-3-5-5-5-5-3-3-3-3-8-8-8-8-8-10-10-10-10-10-|
E|----------------------------------------------------------|

  I just had to get that off my chest
G|-------------------------------------------------------------------------|
D|-------------------------------------------------------------------------|
A|-----------------10-10-10-10-9-9-9-9-----------------10-10-10-10-9-9-9-9-|
E|-7-7-7-7-5-5-5-5---------------------7-7-7-7-5-5-5-5---------------------|

  Of the best of the best
G|-------------------------------------------------------------------------|
D|-------------------------------------------------------------------------|
A|-----------------10-10-10-10-9-9-9-9-----------------10-10-10-10-9-9-9-9-|
E|-7-7-7-7-5-5-5-5---------------------7-7-7-7-5-5-5-5---------------------|

  Let's sing and rhyme
G|-----------------------------------------------------------------|
D|-----------------------------------------------------------------|
A|-5-5-5-5-3-3-3-3-5-5-5-5-3-3-3-3-5-5-5-5-3-3-3-3-----------------|
E|-------------------------------------------------5-5-5-5-3-3-3-3-|

  Let's sing and rhyme
G|-------------------------------------------------------------------|
D|-------------------------------------------------------------------|
A|-5-5-5-5-3-3-3-3-5-5-5-5-3-3-3-3-5-5-5-5-3-3-3-3-------------------|
E|-------------------------------------------------5-5-5-5-3-3-3-3-7-|
Comments