Rem - 1000000 Chords & Tabs

 

1000000 Chords & Tabs

Rem Chords & Tabs

Version: 1 Type: Tab 0 ratings
1 star 2 stars 3 stars 4 stars 5 stars
comments

1000000 Tab

   
------------------------------------------------------------------------
			     1,000,000 - REM
------------------------------------------------------------------------
Tabbed by: Barnaby Wilde
Email:

Tuning:

Intro/Verse
e|-0--0--0--0-------------------------------------|
B|-0--0--0--0-------------------------------------|
G|-8--8--8--9h------------------------------------|
D|-9--9--9--9-------------------------------------|
A|-9--0--7h--7------------------------------------|
E|-7--0--0--0-------------------------------------|
[ Tab from: http://www.guitartabs.cc/tabs/r/rem/1000000_tab.html ]
Bridge 1: x4
“All among …”
e|-0---0---0------------------------------------|
B|--0---0---------------------------------------|
G|---6---6--------------------------------------|
D|----------------------------------------------|
A|----------------------------------------------|
E|----------------------------------------------|

Chorus:
A-C#m-Bm-E
e|--0--0--0--0----------------------------------|
B|--0--0--0--0----------------------------------|
G|--6--6--4--1----------------------------------|
D|--7--6--4--2----------------------------------|
A|--7--4--2--2----------------------------------|
E|--5--0--0--0----------------------------------|

Bridge 2: x8
Pick like in Bridge 1, but slide form below
e|----------------------------------------------|
B|----------------------------------------------|
G|--6--8----------------------------------------|
D|--7--9----------------------------------------|
A|----------------------------------------------|
E|----------------------------------------------|
Comments