Relient K - Who I Am Hates Who Ive Been Chords & Tabs

 

Who I Am Hates Who Ive Been Chords & Tabs

Relient K Chords & Tabs

Version: 1 Type: Tab 0 ratings
1 star 2 stars 3 stars 4 stars 5 stars
comments

Who I Am Hates Who Ive Been Tab

   
tuning:standard

intro: guitar 1
e---4-2-0---4-2-0---4-2-0---4-2-0---4-2-0---4-2-0---4-2-0--0-0-0~~---->
B-0-------4-------2-------0-------4-------2-------0------------4~~---->
G--------------------------------------------------------------------->
D--------------------------------------------------------------------->
A--------------------------------------------------------------------->
E--------------------------------------------------------------------->

intro: guitar 2
e-0~~-----0~~-----4~~--0--0~~-----0~~-----4~~--0--0~~---0------0~~---->
B-0~~-----4~~-----5~~--0--0~~-----4~~-----5~~--0--0~~---0------4~~---->
G-2~~-----4~~-----6~~--1--2~~-----4~~-----6~~--1--2~~---2------4~~---->
D-2~~-----4~~-----6~~--2--2~~-----4~~-----6~~--2--2~~---2------4~~---->
A-0~~-----2~~-----4~~--2--0~~-----2~~-----4~~--2--0~~---0------2~~---->
E-0~~-------------4~~--0--0~~-------------4~~--0--0~~---0------------->

verse 1: the fist part is piano then when he says "and I don't want you
to know... who I am.." repeat intro progression

"this is no place.. to try and live my life"
e--------------------------------------|
B--------------------------------------|
G-2xxxxxxxxxxxxxxxxxxxx4xxxxxxxxxxxxxx4|
D-2xxxxxxxxxxxxxxxxxxxx4xxxxxxxxxxxxxx4|
A-0xxxxxxxxxxxxxxxxxxxx2xxxxxxxxxxxxxx2|
E--------------------------------------|

pre-chorus: guitar 2
e--------------------------------------------------------------------->
B--------------------------------------------------------------------->
G--------------------------------------------------------------------->
D-2222/9999-1313\6666-1111\9999-2222/9999-1313------------------------>
A-2222/9999-1313\6666-1111\9999-2222/9999-1313-----7----7------------->
E-0000/7777-1111\4444-9-9-\7777-0000/7777-1111-5xxx-5xxx-7xxx--------->

chorus: guitar 1
e-0042004200--------00420042-000000000000----------------------------->
B--------------------------------------------------------------------->
G--------------------------------------------------------------------->
D--------------------------------------------------------------------->
A--------------------------------------------------------------------->
E--------------------------------------------------------------------->
[ Tab from: http://www.guitartabs.cc/tabs/r/relient_k/who_i_am_hates_who_ive_been_tab.html ]
chorus: guitar 2
e-0000000000---------------------------------------------------------->
B-0000000000---------------------------------------------------------->
G-1111111111-4444/6666666666-444444444444/6666666666-2--22222-4444444->
D-2222222222-4444/6666666666-444444444444/6666666666-2--22222-4444444->
A-2222222222-2222/4444444444-222222222222/4444444444-0--00000-2222222->
E-0000000000---------------------------------------------------------->

repeat intro 

verse 2: guitar 2
e--------------------------------------------------------------------->
B--------------------------------------------------------------------->
G--------------------------------------------------------------------->
D-2xxxxxxxx-7xxxxxxx-11xxxx-9xxxxxxxx-2-xxxxxx-7xxxxxx-11xxxxxxxx----->
A-2xxxxxxxx-7xxxxxxx-11xxxx-9xxxxxxxx-2-xxxxxx-7xxxxxx-11xxxxxxxx----->
E-0xxxxxxxx-5xxxxxxx-9xxxxx-7xxxxxxxx-0-xxxxxx-5xxxxxx-9xxxxxxxxx----->

e--------------------------------------------------------------------->
B--------------------------------------------------------------------->
G--------------------------------------------------------------------->
D-9xxxxx999-7777-9999/131313-7777-9999/131313\7xxxxx9xxxxx-9~~-2~~---->
A-9xxxxx999-7777-9999/131313-7777-9999/131313\7xxxxx9xxxxx-----2~~---->
E-7xxxxx777-5555-7777/111111-5555-7777/111111\5xxxxx7xxxxx-----0~~---->

some more piano

repeat pre-chorus then chorus

bridge: guitar 2
e--------------------------------------------------------------------->
B--------------------------------------------------------------------->
G------------------------------------4444----------------------------->
D-6xxx/7xxx2xxx-9-99/1111117777-2222-4444-2222------------------------>
A-6xxx/7xxx2xxx-9-99/1111117777-2222-2222-2222------------------------>
E-4xxx/5xxx0xxx-7-77/9-9-9-5555-0000------0000------------------------>

repeat chorus

outro: guitar 1
e-0--0--2--2--4--4--0--0--2--2--4--4--0--0--0-0-0~~------------------->
B--0--0--0--0--0--0--0--0--0--0--0--0--0--0-----4~~------------------->
G--------------------------------------------------------------------->
D--------------------------------------------------------------------->
A--------------------------------------------------------------------->
E--------------------------------------------------------------------->

outro: guitar 2
e-----------------------------------------------0~~------------------->
B-----------------------------------------------4~~------------------->
G---------4--66666------2222-4444-6666------2-2-4~~------------------->
D-2xxxxxx-4--66666-2222-2222-4444-6666-2222-2-2-4~~------------------->
A-2xxxxxx-2--44444-2222-0000-2222-4444-2222-0-0-2~~------------------->
E-0xxxxxx----------0000----------------0000--------------------------->

well, that's it.  enjoy!
Comments