Relient K - Which To Bury Us Or The Hatchet Chords & Tabs

 

Which To Bury Us Or The Hatchet Chords & Tabs

Relient K Chords & Tabs

Version: 1 Type: Tab 0 ratings
1 star 2 stars 3 stars 4 stars 5 stars
comments

Which To Bury Us Or The Hatchet Tab

which to bury, us or the hatchet? - relient k

This tab is also complete with lyrics under the correct measure, but not the correct 
 Enjoy!

tuning: drop d and all flatted

verse 1: guitar 2
eb-------------------------------------------------------------------->
Bb-------------------------------------------------------------------->
Gb-9xxxxxxx-10xxxxx-7xxxxxxxx----------2222--------------------------->
Db-9xxxxxxx-10xxxxx-7xxxxxxxx----------2222-3333-0000-5xxxx-2xxxx----->
Ab-7xxxxxxx-8xxxxxx-5xxxxxxxx----------0000-3333-0000-5xxxx-2xxxx----->
Db---------------------------55555-2222-----3333-0000-5xxxx-2xxxx----->
I think you know what I'm getting at I find it so upsetting that the memories that you 
you keep the bad but the good you just forget and even though I'm angry I can still say I 
my heart will break the day when you peel out and drive away I can't believe this happened

pre-chorus: guitar 2
eb-------------------------------------------------------------------->
Bb-------------------------------------------------------------------->
Gb-------------------------------------------------------------------->
Db-3xxxxxx-10xxxxxx-3xxxxxx-7xxxxx-5-5-5-5---------------------------->
Ab-3xxxxxx-10xxxxxx-3xxxxxx-7xxxxx-5-5-5-5---------------------------->
Db-3xxxxxx-10xxxxxx-3xxxxxx-7xxxxx-5-5-5-5---------------------------->
and all this time I never thought that all we had would be all for none

chorus: guitar 2
eb--------------------------------------------------------------------->
Bb--------------------------------------------------------------------->
Gb--------------------------------------------------------------------->
Db-333-3--777-10-12xxxx-10xx10-10-333-3--777-10-121212-101010-10-3xxxx->
Ab-333-3--777-10-12xxxx-10xx10-10-333-3--777-10-121212-101010-10-3xxxx->
Db-333-3--777-10-12xxxx-10xx10-10-333-3--777-10-121212-101010-10-3xxxx->
no, I don't hate you don't wanna fight you know I'll always love you but right now I 
don't like you know I don't hate you don't want to fight you know I'll always love you but 
now I just don't like you cause you took this too far, too far

then some kind of banjo thingy or something after the chorus

verse 2:
eb--------------------------------------------------------------------->
Bb--------------------------------------------------------------------->
Gb-10xxxxx-7xxxxxxxxxxx---------------5xxxx-5xxxx---------------------->
Db-10xxxxx-7xxxxxxxxxxx-5xxxxx-2xxxx--5xxxx-5xxxx---------------------->
Ab-8xxxxxx-5xxxxxxxxxxx-5xxxxx-2xxxx--3xxxx-0xxxx---------------------->
Db----------------------5xxxxx-2xxxx--------------000000-5555-222------>
make your decision and don't you dare think twice go with your instincts along with some 
advice this didn't turn out the way I thought it would at all you blame me but some of 
is still your fault I tried to move you, but you just wouldn't budge I tried to hold your
hand but you'd rather hold your grudge I think you know what I'm getting at you said 
and I just don't want you regretting that

repeat chorus

bridge: both guitars
[ Tab from: http://www.guitartabs.cc/tabs/r/relient_k/which_to_bury_us_or_the_hatchet_tab.html ]
guitar 1
eb-3330003330--3-0-3330003330--3-0-3330003330--3-0-3330003330--3-0----->
Bb--------------------------------------------------------------------->
Gb--------------------------------------------------------------------->
Db--------------------------------------------------------------------->
Ab--------------------------------------------------------------------->
Db--------------------------------------------------------------------->

guitar 2
eb--------------------------------------------------------------------->
Bb--------------------------------------------------------------------->
Gb-5~~-------------9~~-------------5~~-------------9~~----------------->
Db-3~~-------------7~~-------------3~~-------------7~~------------777-->
Ab----------------------------------------------------------------777-->
Db----------------------------------------------------------------777-->

guitar 1
eb--3330003330--3-0-3330003330--3-0-3330003330--3-0-3330003330--3-0---->
Bb--------------------------------------------------------------------->
Gb--------------------------------------------------------------------->
Db--------------------------------------------------------------------->
Ab--------------------------------------------------------------------->
Db--------------------------------------------------------------------->
and wisdom always chooses these black eyes and these bruises over the heartache that 
say never completely goes away

guitar 2
eb--------------------------------------------------------------------->
Bb--------------------------------------------------------------------->
Gb--------------------------------------------------------------------->
Db-10\333333333333333/777777777777777\333333333333333/7777777777777-777>
Ab-10\333333333333333/777777777777777\333333333333333/7777777777777-777>
Db-10\333333333333333/777777777777777\333333333333333/7777777777777-777>
and wisdom always chooses these black eyes and these bruises over the heartache that 
say never completely goes away

guitar 1
eb--3330003330--3-0-3330003330--3-0-3330003330--3-0-3330003330--3-0---->
Bb--------------------------------------------------------------------->
Gb--------------------------------------------------------------------->
Db--------------------------------------------------------------------->
Ab--------------------------------------------------------------------->
Db--------------------------------------------------------------------->
(I just can't believe this happened) and wisdom always chooses these black eyes and 
bruises over the heartache that they say never completely goes away

guitar 2
eb--------------------------------------------------------------------->
Bb--------------------------------------------------------------------->
Gb--------------------------------------------------------------------->
Db-10\333333333333333/777777777777777\3~~------------/7~~-------------->
Ab-10\333333333333333/777777777777777\3~~------------/7~~-------------->
Db-10\333333333333333/777777777777777\3~~------------/7~~-------------->
(I just can't believe this happened) and wisdom always chooses these black eyes and 
bruises over the heartache that they say never completely goes away

repeat chorus

bridge 2/outro is all piano and a banjo or something

what happened to us I heard that it's me we should blame what happened to us why didn't 
stop me from turning out this way and know that I don't hate you and know that I don't 
fight you and know I'll always love you but right now I just don't...

well, there it is. enjoy!
Comments