Relient K - When Youre Around Chords & Tabs

 

When Youre Around Chords & Tabs

Relient K Chords & Tabs

Version: 1 Type: Tab 0 ratings
1 star 2 stars 3 stars 4 stars 5 stars
comments

When Youre Around Tab

When your around - Reliant K
Reliant K First self titled CD
By:Jeffrey Womack
Intro:
e|---------------------------------------------------------------------------|
B|---------------------------------------------------------------------------|
G|---------------------13----------------------------------------------------|
D|--5------------------13----------------------------------------------------|
A|--3---5-------7------11----------------------------------------------------|
E|------3-------9------------------------------------------------------------|
Verses
e|---------------------------------------------------------------------------|
B|---------------------------------------------------------------------------|
G|---------------------------9------13---------------------------------------|
D|---5xxxxxx-----------------9------13--------repeat a few times-------------|
A|---3xxxxxx---5xxxxxxx------7------11---------------------------------------|
E|-------------3xxxxxxx------------------------------------------------------|
Chorus
e|---------------------------------------------------------------------------|
B|---------------------------------------------------------------------------|
G|---------------------------------------------------------------------------|
D|----5----------------------------------------------------------------------|
A|----3---5-5-----5--5--5----------------------------------------------------|
E|--------3-3-----7--7--7----------------------------------------------------|
Post Chorus
e|-----------------------------Guitar 2 -------------------------------------|
B|---------------------------------9-9-9-9-9-9-13-13-13-13-13-13-------------|
G|---------------------------------7-7-7-7-7-7-11-11-11-11-11-11-------------|
D|---5-5-5-5-5-5-------------------5-5-5-5-5-5-------------------------------|
A|---3-3-3-3-3-3----5-5-5-5-5-5----3-3-3-3-3-3--5--5--5--5--5--5-------------|
E|------------------3-3-3-3-3-3-----------------3-3-3-3-3-3------------------|
[ Tab from: http://www.guitartabs.cc/tabs/r/relient_k/when_youre_around_tab.html ]
Comments