Relient K - Wake Up Call Chords & Tabs

 

Wake Up Call Chords & Tabs

Relient K Chords & Tabs

Version: 2 Type: Tab 0 ratings
1 star 2 stars 3 stars 4 stars 5 stars
comments

Wake Up Call Tab

Intro/Verse:

 You repeat this same chord (Emaj7) until the chorus
e|---------------------------|
B|---------------------------|
G|---8--8--X--X--8--8--X--X--|  ETC.
D|---9--9--X--X--9--9--X--X--|
A|---7--7--X--X--7--7--X--X--|
E|---------------------X--X--|

Breakdown:
 Part 1
e|----------------------------------------------|
B|---10-9-7-------7-----9h10-9-7-9--9h10-9-7-9--|
G|----------9-6-9---9---------------------------|
D|----------------------------------------------|
A|----------------------------------------------|
E|----------------------------------------------|
[ Tab from: http://www.guitartabs.cc/tabs/r/relient_k/wake_up_call_tab_ver_2.html ]
 Part 2 (palm muted)
e|-----------------------|
B|---9-9--8-8--6-6--8-8--|
G|-----------------------|
D|-----------------------|
A|-----------------------|
E|-----------------------|

Play Part 1, then Part 2 twice, then Part 1 again, and then:

e|--------------------------------|
B|--------------------------------|
G|-------9------------------------|
D|-------9------9------11------7--|
A|---7-7-7------9------11------7--|
E|----------7-7-7--9-9-9---5-5-5--|

Then, the chorus:

(Strumming not indicated)

e|--------------|
B|--------------|
G|-------9------|
D|---7---9---9--|
A|---7---7---9--|
E|---5-------7--|

Corrections and such welcome.  Chipp379@aol.com
Comments