Relient K - Trademark Chords & Tabs

 

Trademark Chords & Tabs

Relient K Chords & Tabs

Version: 2 Type: Tab 0 ratings
1 star 2 stars 3 stars 4 stars 5 stars
comments

Trademark Tab

   
-------------------------------------------------------------------------------
			     SONG NAME - Band Name
-------------------------------------------------------------------------------
Tabbed by:a relient K fan =)(relient K Rocks)
Email:

Tempo=179

Tuning:DADGBe

e|--------------------------------------------------------------------------|
B|--------------------------------------------------------------------------|
G|--------------------------------------------------------------------------|
D|-3----4-4-----7--7/9--9\-----4-4-----7--7/9--9\-----0-0-----7--7/9--9\----|
A|-3----4-4--------------------4-4--------------------0-0-------------------|
D|-3----4-4--------------------4-4--------------------0-0-------------------|

e|--------------------------------------------------------------------------|
B|--------------------------------------------------------------------------|
G|--------------------------------------------------------------------------|
D|-0-0-----7--7\6--6-----0-0-----7--7/9--6\------0-0-----11--11/12--12\-----|
A|-0-0-------------------0-0---------------------0-0------------------------|
D|-0-0-------------------0-0---------------------0-0------------------------|
[ Tab from: http://www.guitartabs.cc/tabs/r/relient_k/trademark_tab_ver_2.html ]
e|--------------------------------------------------------------------------|
B|--------------------------------------------------------------------------|
G|--------------------------------------------------------------------------|
D|-0-0-----11--11/12--12\-----0-0-----11--11\9--9-----0-0-----11--11/12--9\-|
A|-0-0------------------------0-0---------------------0-0-------------------|
D|-0-0------------------------0-0---------------------0-0-------------------|
 (the whole A strng is palm muted here)
e|--------------------------------------------------------------------------|
B|--------------------------------------------------------------------------|
G|--------------------------------------------------------------------------|
D|-----11------7-----14-----12-----11\-----9-----6-----7-----4-----11-----7-|
A|-0-0-----0-0---0-0----0-0----0-0-----7-7---7-7---5-5---5-5---0-0----0-0---|
D|--------------------------------------------------------------------------|
 (the A sring is still Palm Muted)
e|--------------------------------------------------------------------------|
B|--------------------------------------------------------------------------|
G|--------------------------------------------------------------------------|
D|-----14-----12-----11\-----9-----6-----7-----4----------------------------|
A|-0-0----0-0----0-0-----7-7---7-7---5-5---5-5------------------------------|
D|--------------------------------------------------------------------------|

I spent alot of time on this intro it is 100% correct (i think).This my
first tab PLEASE rate it once you know how to play it.great song from a great
band.Play with the CD so you can get the tempo right(once you get the tempo
right it sounds RAD).


| /  slide up
| \  slide down
| h  hammer-on
| p  pull-off
| ~  vibrato
| +  harmonic
| x  Mute note
===============================================================================
Comments