Relient K - This Week The Trend Chords & Tabs

 

This Week The Trend Chords & Tabs

Relient K Chords & Tabs

Version: 1 Type: Tab 0 ratings
1 star 2 stars 3 stars 4 stars 5 stars
comments

This Week The Trend Tab

   
intro:  guitar 1
e-------------------------------------------------------------------->
B-------------------------------------------------------------------->
G---55-33-----------55-33------------55-33------------55-33---------->
D-------------------------------------------------------------------->
A--------34-4-44-6-------34-4-44-6-44-----34-4-44-6-44-----34-4-44-6->
E-44--------------44------------------------------------------------->

intro:  guitar 2
e-------------------------------------------------------------------->
B-------------------------------------------------------------------->
G----------------------------------6~~--------------6~~-------------->
D-----------------6~~--------------6~~--------------6~~-------------->
A-----------------6~~--------------4~~--------------4~~-------------->
E-----------------4~~------------------------------------------------>

        guitar 1
e-------------------------------------------------------------------->
B-------------------------------------------------------------------->
G---55-33-----------55-33------------55-33------------55-33---------->
D-------------------------------------------------------------------->
A--------34-4-44-6-------34-4-44-6-44-----34-4-44-6-44-----34-4-44-6->
E-44--------------44------------------------------------------------->

        guitar 2
e-------------------------------------------------------------------->
B-------------------------------------------------------------------->
G----------------------------------6~~--------------6~~-------------->
D-6~~-------------6~~--------------6~~--------------6~~-------------->
A-6~~-------------6~~--------------4~~--------------4~~-------------->
E-4~~-------------4~~------------------------------------------------>

verse:  guitar 1
e-4-4-4-4-4-4-4-4-4-4-4-4-4-4-4-4-4-4-4-4-4-4-4-4-4-4-4-4-4-4-4-4-4-->
B-4-4-4-4-4-4-4-4-4-4-4-4-4-4-4-4-4-4-4-4-4-4-4-4-4-4-4-4-4-4-4-4-4-->
G-------------------------------------------------------------------->
D-------------------------------------------------------------------->
A-------------------------------------------------------------------->
E-------------------------------------------------------------------->

chorus: guitar 2
e----------------------------------------->
B----------------------------------------->
G----------6xxxxxxx5xxxxxx3xxxxxxx3xxxxxx->
D-6xxxxxxxx6xxxxxxx3xxxxxx3xxxxxxx1xxxxxx->
A-6xxxxxxxx4xxxxxxx-------1xxxxxxx-------->
E-4xxxxxxxx------------------------------->
[ Tab from: http://www.guitartabs.cc/tabs/r/relient_k/this_week_the_trend_tab.html ]
e-------------------------------------------------------------------->
B-------------------------------------------------------------------->
G-55556666----8888-55556666----8888-5xxxxx6xxxxx------8xxxxx6xxxxxxx->
D-5555666666668888-5555666666668888-5xxxxx6xxxxx4xxxxx8xxxxx6xxxxxxx->
A-3333444466666666-3333444466666666-3xxxxx4xxxxx4xxxxx6xxxxx4xxxxxxx->
E---------4444-------------4444-----------------2xxxxx--------------->

e----------------------------------------->
B----------------------------------------->
G----------6xxxxxxx5xxxxxx3xxxxxxx3xxxxxx->
D-6xxxxxxxx6xxxxxxx3xxxxxx3xxxxxxx1xxxxxx->
A-6xxxxxxxx4xxxxxxx-------1xxxxxxx-------->
E-4xxxxxxxx------------------------------->

repeat intro w/both guitars and their parts

repeat verse

repeat chorus

repeat intro with this little twist:

        guitar 1
e------------------------------------------------------------------->
B--------------------------------------44-------------44--44--4444-->
G---55-33-----------55-33------------55--55-66-55-3-55--55--55------>
D------------------------------------------------------------------->
A--------34-4-44-644-----34-4-44-6-44------------------------------->
E-44---------------------------------------------------------------->

        guitar 2
e------------------------------------------------------------------->
B------------------------------------------------------------------->
G-----------------6~~--------------5~~-------3~~--3~~--------------->
D-6~~-------------6~~--------------3~~-------3~~--1~~---6~~--------->
A-6~~-------------4~~------------------------1~~--------6~~--------->
E-4~~---------------------------------------------------4~~--------->

bridge: guitar 2
e------------------------------------333--------3-4-6-8-16-15~~----->
B-------------------------44444444444---4444-4-6-------------------->
G--------(piano)----------6xxxxxxxxxxxxxxxxxxxxxxxxxxxxxxxxxxx66---->
D-------------------------6xxxxxxxxxxxxxxxxxxxxxxxxxxxxxxxxxxx66---->
A-------------------------4xxxxxxxxxxxxxxxxxxxxxxxxxxxxxxxxxxx44---->
E------------------------------------------------------------------->

outro:  guitar 2
e------------------------------------------------------------------->
B------------------------------------------------------------------->
G------------------------------------------------------------------->
D-666666-6666666-666666-66666-66666-666666-6666666-6666666-666666-6->
A-666666-6666666-666666-66666-66666-666666-6666666-6666666-666666-6->
E-444444-4444444-444444-44444-44444-444444-4444444-4444444-444444-4->
   x2      x2      x2     x2    x2     x2     x2      x2      x2

awesome song by relient k and im pretty sure that i got everything right.
try it out and please rate! thanks, enjoy
Comments