Relient K - The Pirates Who Dont Do Anything Chords & Tabs

 

The Pirates Who Dont Do Anything Chords & Tabs

Relient K Chords & Tabs

Version: 1 Type: Tab 0 ratings
1 star 2 stars 3 stars 4 stars 5 stars
comments

The Pirates Who Dont Do Anything Tab

   
relient k: "the pirates who don't do anything"
  from the pirates who don't do anything single
    2002 gotee records
     tabbed by garrett johnston
      garrettj@tisd.net


chorus   A   D   A   E  (2x) A
verse1   A   D   A   E  (2x)
chorus2  A#  D#  A#  F  (2x) A#
verse2   A#  D#  A#  F
         A#  D#  E(?)
         D#  F   A#
chorus3  B   E   B   F# (2x)
verse3   B   E   B   F# (2x) B

[ Tab from: http://www.guitartabs.cc/tabs/r/relient_k/the_pirates_who_dont_do_anything_tab.html ]
bridge     e[----------------------------------]
           B[----------------------------------]
           G[-----------------11111111---------]  yes, i do realize this part
           D[---------44444444--------22222222-]  is for bass. but i play it
           A[-22222222-------------------------]  anyway, because it's fun. :)
           E[----------------------------------] (3x)

verse4     e[-11-------11-------11-11-------11-------11-11------11---------11-]
           B[-------12-------12----------12-------12---------12------12-------]
           G[----11-------11----------10-------10----------9-------9----------]
           D[-----------------------------------------------------------------]
           A[-----------------------------------------------------------------]
           E[-----------------------------------------------------------------]

           e[-------11-------11-11-------11-11-------11--11-]
           B[----12-------12----------12----------12-----12-]
           G[-10-------10----------11----------11--------10-]
           D[-----------------------------------------------]
           A[-----------------------------------------------]
           E[-----------------------------------------------]

         E   F#  B
chorus4  C   F   C   G  (2x)  C
Comments