Relient K - The Pirates Who Dont Do Anything Chords & Tabs

 

The Pirates Who Dont Do Anything Chords & Tabs

Relient K Chords & Tabs

Version: 2 Type: Bass Tab 0 ratings
1 star 2 stars 3 stars 4 stars 5 stars
comments

The Pirates Who Dont Do Anything Bass Tab

The Pirates Who Don't Do Anything
Relient K
Nick

I think this is right!

              Chorus
G-----------------------------------|
D------0-------2-------0-----2------|
A--0-------0-------0-------0---0----|
E-----------------------------------|
              Verse 1
G-----------------------------------|
D---------0000-------------22222222-|
A-00000000----0000-00000000---------|
E-----------------------------------|

G-----------------------------------|
D---------0000---------2222---------|
A-00000000----0000-0000----00000000-|
E-----------------------------------|
              Chorus 2
G-----------------------------------|
D---------1-1-1-1-------------------|
A-1-1-1-1---------1-1-1-1-----------|
E-------------------------11111111--|

G-----------------------------------|
D---------1-1-1-1-----3-------------|
A-1-1-1-1---------1-------1---------|
E-----------------------------------|
              Verse 2
G-----------------------------------|
D---------1111-------------33333333-|
A-11111111----1111-11111111---------|
E-----------------------------------|
[ Tab from: http://www.guitartabs.cc/tabs/r/relient_k/the_pirates_who_dont_do_anything_btab_ver_2.html ]
G-----------------------------------|
D---------1111-2----1---3-----------|
A-11111111------------------1-------|
E-----------------------------------|
              Chorus 3
G-----------------------------------|
D---------2-2-2-2-------------------|
A-2-2-2-2---------2-2-2-2-----------|
E-------------------------22222222--|

G-----------------------------------|
D---------2-2-2-2-----4-------------|
A-2-2-2-2---------2-----------------|
E-----------------------------------|
              Verse 3
G-----------------------------------|
D-----2-------4---------------------|
A-2-----2-2-------------------------|
E-----------------------------------|

G-----------------------------------|
D---------2222---------4444---------|
A-22222222----2222-2222----22222----|
E-----------------------------------|
              Bridge
G-----------------11111111----------|
D---------44444444--------22222222--|    (3x)
A-22222222--------------------------|
E-----------------------------------|
   (slow)     Verse 4         (faster)
G-4------11-9---10---11------][-------|
D------------------------3---][-2-4---|
A----------------------------][-----2-|
E----------------------------][-------|
              chorus 4
G-----------2-3-5-------------------|
D---2-3-5-3---------2-3-5-----------|
A-3---------------3---------2-3-5---|
E-------------------------3---------|

G-----------2-3-5-------------------|
D---2-3-5-3---------2---------------|
A-3---------------3-------3---------|
E---------------------3-------------|

This sounds right once you get the rhythm down.
Comments