Relient K - Softer To Me Chords & Tabs

 

Softer To Me Chords & Tabs

Relient K Chords & Tabs

Version: 2 Type: Bass Tab 0 ratings
1 star 2 stars 3 stars 4 stars 5 stars
comments

Softer To Me Bass Tab

intro/verse
|----|--------------------------------------------------------------|
|----|--------------------------------------------------------------|
|----|----------------44444444-6----------------6666----------------|
|-1 -|--11111111------------------44444444------------44-3----------|

verse
|-------------------------------------------|
|-------------------------------------------|
|------- 44-6---------------6666------------|
|-11-1--------44444444--------------44-3----|
[ Tab from: http://www.guitartabs.cc/tabs/r/relient_k/softer_to_me_btab_ver_2.html ]
chorus intro
|------------------------------|
|-----------6------------------|
|----3--4-----6--4-----4-------|
|--1-----------------3-----3---|


chorus
|--------------------|
|--------------------|
|------4-6----6------|
|-1-1------4----4-3--|


Break it down
|----------------------------------------------------|
|----------------------------------------------------|
|---------------44444444-------------------66666666--|
|-11111111-----------------444444444-----------------|
Comments