Relient K - Softer To Me Chords & Tabs

 

Softer To Me Chords & Tabs

Relient K Chords & Tabs

Version: 1 Type: Bass Tab 0 ratings
1 star 2 stars 3 stars 4 stars 5 stars
comments

Softer To Me Bass Tab

   
Title: Softer To Me
Artist: Relient K
Album: Relient K

Instrument: 4 String Bass

Tabbed by: Joe Koors (bucketokoors@yahoo.com)

Tuning: Standard (E A D G)

Previous tabs: Sadie Hawkens Dance
[ Tab from: http://www.guitartabs.cc/tabs/r/relient_k/softer_to_me_btab.html ]
verse
G|-------------------------------------------------------------------||
D|-------------------------------------------------------------------||
A|-----------------------33333-------55555---55-33-------------------||
E|1----------------11111-------33333---------------33--11------------||

Chorus
G|-------------------------------------------------------------------||
D|-------------------------------------------------------------------||
A|-----353-5-5-------------------------------------------------------||
E|1 ------3-3--------------------------------------------------------||

Slow part play verse but slower
Comments