Relient K - Savannah Chords & Tabs

 

Savannah Chords & Tabs

Relient K Chords & Tabs

Version: 5 Type: Tab 0 ratings
1 star 2 stars 3 stars 4 stars 5 stars
comments

Savannah Tab

IMPORTANT: PARTIAL CREDIT GOES TO SKAYLEZ AND MYPERUBA (I GOT SOME HELP ON THE KEY OF 
PARTS FROM THEIRS, THEN MADE AN ATTEMPT ON MY OWN ON HOW IT SOUNDS.)THIS IS HOW I THINK 
ITS PLAYED.

This is one of my favorite songs by them; it also reminds me of my girlfriend. If you're 
reading this, I love you, Dani! :)

Tuning: Drop C#

Legend: ~Let Ring  x muted

Intro (Palm Muted except for ending chord [D/F#]):
D#|------------|------------|------------|------------|------------|
A#|------------|------------|------------|------------|----------5-|
F#|------------|------------|--2---0---2-|--2---0---2-|--0---0--3--|
C#|--2---4---2-|--2---4---2-|------------|------------|------------|
G#|-0---0---0--|-0---0---0--|-2---2---2--|-2---2---2--|-1---1------|
C#|0---0---0---|0---0---0---|0---0---0---|0---0---0---|0---0---0---|

D#|------------|------------|-2~-|
A#|--3-------5-|------------|-3~-|
F#|-3----0--3--|------------|-2~-|
C#|------------|--4---4---4-|-4~-|
G#|-----1------|-0---0---0--|-0~-|
C#|0---0---0---|0---0---0---|----|

Verse I (I)(Palm Muted)
D#|------------|------------|------------|------------|------------|
A#|------------|------------|------------|------------|----------5-|
F#|------------|------------|--2---0---2-|--2---0---2-|--0---0--3--|
C#|--2---4---2-|--2---4---2-|------------|------------|------------|
G#|-0---0---0--|-0---0---0--|-2---2---2--|-2---2---2--|-1---1------|
C#|0---0---0---|0---0---0---|0---0---0---|0---0---0---|0---0---0---|

D#|------------|------------|------------|
A#|--3-------5-|------------|------------|
F#|-3----0--3--|------------|------------|
C#|------------|--4---4---4-|--4---4---4-|
G#|-----1------|-0---0---0--|-0---0---0--|
C#|0---0---0---|0---0---0---|0---0---0---|

D#|-----------|-----------|----------|----------|----------|----------|
A#|-----------|-----------|----------|----------|----------|----------|
F#|-----------|-----------|2---------|----------|----------|----------|
C#|-----------|-----------|2--55x55x-|2--55x55x-|5--55x55x-|5--55x55x-|
G#|x7--77x77x-|x9--99x99x-|2--22x22x-|2--22x22x-|0--00x00x-|0--00x00x-|
C#|x0--00x00x-|x0--00x00x-|----------|----------|----------|----------|

D#|----------|----------|
A#|----------|----------|
F#|----------|----------|
C#|----------|----------|
G#|9--99x99x-|9--99x99x-|
C#|0--00x00x-|0--00x00x-|

Verse I  (Play Twice)
D#|-----------|-----------|-----------|-----------|
A#|3-3-3------|-----------|-----------|-----------|
F#|------2-2-2|-----------|-----------|-----------|
C#|-----------|4-4-4-2-2-2|-----------|-----------|
G#|-----------|-----------|4-4-4-2-2-2|-----------|
C#|-----------|-----------|-----------|5-5-5-4-4-4|

Verse I (Buildup)
D#|------------|------------|------------|-2~-|
A#|------------|------------|------------|-3~-|
F#|------------|------------|------------|-2~-|
C#|-54--54--54-|-54--54--54-|--4---4---4-|-4~-|
G#|------------|------------|-0---0---0--|-0~-|
C#|0---0---0---|0---0---0---|0---0---0---|----|

Chorus I  (Play Twice)
D#|----------------|----------------|---------------|---------------|
A#|----------------|----------------|---------------|---------------|
F#|----------------|----------------|2-222----------|2-222----------|
C#|----------------|----------------|2-2225--55-5555|2-2225--55-5555|
G#|77-7777--99-9999|77-7777--99-9999|2-2222--22-2222|2-2222--22-2222|
C#|00-0000--00-0000|00-0000--00-0000|---------------|---------------|

D#|----------------|----------------|----------------|----------------|
A#|----------------|----------------|----------------|----------------|
F#|----------------|----------------|----------------|----------------|
C#|55-5555--55-5555|55-5555--55-5555|99-9999--99-9999|99-9999--99-9999|
G#|00-0000--00-0000|00-0000--00-0000|00-0000--00-0000|00-0000--00-0000|
C#|----------------|----------------|----------------|----------------|

 (Play Twice; Tremolo Pick)
D#|-14~-12~|--------|--------|--------|
A#|--------|-15~-14~|-14~-12~|-12~----|
F#|--------|--------|--------|-----14~|
C#|--------|--------|--------|--------|
G#|--------|--------|--------|--------|
C#|--------|--------|--------|--------|
[ Tab from: http://www.guitartabs.cc/tabs/r/relient_k/savannah_tab_ver_5.html ]
Breakdown
D#|------------|------------|------------|------------|------------|
A#|------------|------------|------------|------------|------------|
F#|------------|------------|------------|------------|------------|
C#|-54--54--54-|-54--54--54-|--4---4---4-|--4---4---4-|-54--54--54-|
G#|------------|------------|-0---0---0--|-0---0---0--|------------|
C#|0---0---0---|0---0---0---|0---0---0---|0---0---0---|0---0---0---|

D#|------------|------------|-------|
A#|------------|------------|-------|
F#|------------|------------|-------|
C#|-54--54--54-|--4---4---4-|--4----|
G#|------------|-0---0---0--|-0-----|
C#|0---0---0---|0---0---0---|0---00-|

Bridge (Palm Mute Measures 1-6;8-11)
D#|------2-----|------2-----|-7----------|------------|------2-----|
A#|--5-------5-|--5-------5-|--5--57--78-|-57--78--78-|--5-------5-|
F#|-2---2---2--|-2---2---2--|------------|------------|-2---2---2--|
C#|------------|------------|------------|------------|------------|
G#|------------|------------|------------|------------|------------|
C#|0---0---0---|0---0---0---|5---5---5---|5---5---5---|0---0---0---|

D#|------2-----|---------------|------2-----|------2-----|-57----------|
A#|--5-------5-|---------------|--5-------5-|--5-------5-|----5-55--55-|
F#|-2---2---2--|---------------|-2---2---2--|-2---2---2--|-------------|
C#|------------|---------------|------------|------------|-------------|
G#|------------|----5-4-2-0----|------------|------------|-------------|
C#|0---0---0---|4-5---------4-5|0---0---0---|0---0---0---|-----5---5---|

D#|------------|--------|--------|------------|-2~-|
A#|-32--32--32-|--------|--------|------------|-3~-|
F#|------------|--------|--------|------------|-2~-|
C#|------------|--------|--------|--4---4---4-|-4~-|
G#|------------|4-4-4-4-|5-5-5-5-|-0---0---0--|-0~-|
C#|5---5---5---|--------|--------|0---0---0---|----|

Chorus II (Palm Mute)
D#|-----------|-----------|-----------|-----------|----------|----------|
A#|-----------|-----------|-----------|-----------|---------5|5-3-3----5|
F#|-----------|-----------|-----------|-----------|-------3--|-------3--|
C#|-----------|-----------|--7-7-5-5-5|5-7-7-5-5-5|5-5-5-5---|------5---|
G#|7-7-7-9-9-7|7-7-7-9-9-7|7----------|-----------|----------|----------|
C#|-----------|-----------|-----------|-----------|----------|----------|

D#|-----------|-----------|
A#|5----------|-----------|
F#|-----------|-----------|
C#|--4-4-4-4-4|4-4-4-4-4-4|
G#|-----------|-----------|
C#|-----------|-----------|

(Tremolo Pick Except End Chord [D/F#])
D#|-----|-----|5~-3~|~--~-|6~---|5~-3~|2~---|2~-|
A#|5~-7~|~--~-|-----|-----|-----|-----|-----|3~-|
F#|-----|-----|-----|-----|-----|-----|-----|2~-|
C#|-----|-----|-----|-----|-----|-----|-----|4~-|
G#|-----|-----|-----|-----|-----|-----|-----|0~-|
C#|-----|-----|-----|-----|-----|-----|-----|---|

D#|------------|-----------|------------|--22-2---3-3-3|---------------|
A#|--32-2--22-2|-33-3--33-3|-33-3---22-2|-2--2---2-----|--3---3---232-2|
F#|-2--2-----2-|---2-----2-|---2---2--2-|----------4-4-|-2---2---2---2-|
C#|------------|------2----|4-----2-----|--------------|----4---2------|
G#|-------0----|2-----4----|5-----4-----|2------0------|---------------|
C#|5-----------|-----------|------------|--------------|5--------------|

D#|-------------|-------------|--------------|
A#|--33-3---33-3|-232-3---33-3|--233-3---32-2|
F#|-4--4---2--2-|----2---2--2-|-2---3---2--2-|
C#|-------2-----|4------2-----|2-------0-----|
G#|2------4-----|5------4-----|--------------|
C#|-------------|-------------|--------------|

Outro
D#|------------|------------|------------|------------|------------|
A#|------------|------------|------------|------------|------------|
F#|------------|------------|------------|------------|------------|
C#|-54--54--54-|-54--54--54-|--4---4---4-|--4---4---4-|-54--54--54-|
G#|------------|------------|-0---0---0--|-0---0---0--|------------|
C#|0---0---0---|0---0---0---|0---0---0---|0---0---0---|0---0---0---|

D#|------------|-2~-|
A#|------------|-3~-|
F#|------------|-2~-|
C#|-54--54--54-|-4~-|
G#|------------|-0~-|
C#|0---0---0---|----|

There it is. It was fun figuring it out/ learning it. Please comment/rate!!!!! God 
Bless! :)
Comments