Relient K - Sadie Hawkins Dance Chords & Tabs

 

Sadie Hawkins Dance Chords & Tabs

Relient K Chords & Tabs

Version: 5 Type: Tab 0 ratings
1 star 2 stars 3 stars 4 stars 5 stars
comments

Sadie Hawkins Dance Tab

Sadie hawkins dance tab
Reliant K
Intro

e|-------------------------------------------------------------------------|
B|-----11----------------10-----------------8-------------------11---------|
G|--10----------------10-----------------10------------------10------------|
D|-------------------------------------------------------------------------|
A|-------------------------------------------------------------------------|
E|-------------------------------------------------------------------------|


e|-------------------------------------------------------------------------|
B|-----11-------11-------10-------10-------8-------8--------11-------11----|
G|--10-------10-------10-------10-------10------10-------10-------10-------|
D|-------------------------------------------------------------------------|
A|-------------------------------------------------------------------------|
E|-------------------------------------------------------------------------|


e|-------------------------------------------------------------------------|
B|-----11-------11-------10-------10--------8--------8--------11-----------|
G|--10-------10-------10-------10--------10-------10-------10--------------|
D|-------------------------------------------------------------------------|
A|-------------------------------------------------------------------------|
E|-------------------------------------------------------------------------|

(distortion) (repeat 4 times

|e|-------------------------------------------------------------------|
|B|-------------------------------------------------------------------|
|G|--7--7----7--8----10---7--7----7--8----10----7--7----7--8----10----|
|D|-------------------------------------------------------------------|
|A|--5--5----5--6----8----5--5----5--6----8-----5--5----5--6----8-----|
|E|-------------------------------------------------------------------|
 \______                (same riff)                       ___________/
         \e|---------------------------------------------/
         |B|---------------------------------------------|
         |G|--------10-----------10----------------------|
         |D|---------------------------------------------|
         |A|--8--8---------8--8--------------------------|
         |E|---------------------------------------------|

[ Tab from: http://www.guitartabs.cc/tabs/r/relient_k/sadie_hawkins_dance_tab_ver_5.html ]
Verse
(palm muted)
e|-------------------------------------------------------------------------|
B|-------------------------------------------------------------------------|
G|--7-7-7-7-7-7-7-7-5-5-5-5-5-5-5-5-8-8-8-8-8-8-8-8------------------------|
D|--7-7-7-7-7-7-7-7-5-5-5-5-5-5-5-5-8-8-8-8-8-8-8-8-8-8-8-8-8-8-8-8--------|
A|--5-5-5-5-5-5-5-5-3-3-3-3-3-3-3-3-6-6-6-6-6-6-6-6-8-8-8-8-8-8-8-8--------|
E|--------------------------------------------------6-6-6-6-6-6-6-6--------|

Chorus

e|-------------------------------------------------------------------------|
B|-------------------------------------------------------------------------|
G|--7--7--7--7--5--5--5--5--8--8--8--8-------------------------------------|
D|--7--7--7--7--5--5--5--5--8--8--8--8--8----------------------------------|
A|--5--5--5--5--3--3--3--3--6--6--6--6--8----------------------------------|
E|--------------------------------------6----------------------------------|
                                            oh   oh   oh
e|-------------------------------------------------------------------------|
B|-------------------------------------------------------------------------|
G|--7--7--7--7--5--5--5--5--8--8--8--8-------------------------------------|
D|--7--7--7--7--5--5--5--5--8--8--8--8--8-8-8-8-8-8-8-8--------------------|
A|--5--5--5--5--3--3--3--3--6--6--6--6--8-8-8-8-8-8-8-8--------------------|
E|--------------------------------------6-6-6-6-6-6-6-6--------------------|


Bridge

e|--------------------------------------------------------------------------|
B|--8--8--8--10-10-10-11-11-8--8--8--10-10-10-11-11-8--8--8--10-10-10-11-11-|
G|--10-10-10-10-10-10-10-10-10-10-10-10-10-10-10-10-10-10-10-10-10-10-10-10-|
D|--------------------------------------------------------------------------|
A|--------------------------------------------------------------------------|
E|--------------------------------------------------------------------------|


e|-------------------------|
B|-11-11-11-10-10-10-8-----|
G|-10-10-10-10-10-10-10----|
D|-------------------------|
A|-------------------------|
E|-------------------------|

the little part that comes after the bridge is just the same as the intro. the rest of
the song is the same as some other part of the rest of the song except for the outro
wich is as follows

strum these slowly on clean.
e|----------|
B|----------|
G|-8--------|
D|-8--8-----|
A|-6--8-----|
E|----6-----|

thats it,nice simple song, some of my friends made up a dance for it and they told me
i had to learn to play it so i did and im sharing it with you people. any problems just
e-mail me at meadowskid@hotmail.com or if you want the dance... ^_^
Comments