Relient K - Sadie Hawkins Dance Chords & Tabs

 

Sadie Hawkins Dance Chords & Tabs

Relient K Chords & Tabs

Version: 3 Type: Tab 0 ratings
1 star 2 stars 3 stars 4 stars 5 stars
comments

Sadie Hawkins Dance Tab

this is one cool song!
i cant spell!

intro
just keep struming down on these 3 strings
e----------------------]
b---6-6-6--5-5-5--3-3-3]
g---5-5-5--5-5-5--3-3-3]
d---3-3-3--3-3-3--3-3-3]
a----------------------]
E----------------------]
x4
e------------------------------------------]
b------------------------------------------]
g----------------------------------88888888]
d---88888888---33333333--55555555--88888888]
a---88888888---33333333--55555555--66666666]
E---66666666---11111111--33333333----------]
hammer on every down stroke dont on the up strokes

"all the girls in the bathroom talking"
this is all palm muted
e------------------------------------------]
b------------------------------------------]
g----------------------------------88888888]
d---88888888---33333333--55555555--88888888]
a---88888888---33333333--55555555--66666666]
E---66666666---11111111--33333333----------]
[ Tab from: http://www.guitartabs.cc/tabs/r/relient_k/sadie_hawkins_dance_tab_ver_3.html ]
the chorus is all stacoto
"sadie hawkins dance in my kakie pants"
e-------------------------------------]
b-------------------------------------]
g------------------------------8-8-8-8]
d---8-8-8-8--3-3-3-3--5-5-5-5--8-8-8-8]
a---8-8-8-8--3-3-3-3--5-5-5-5--6-6-6-6]
E---6-6-6-6--1-1-1-1--3-3-3-3---------]

riff: 
e-------------66-------------66------------6666------]
b---666--888-------666--888------666--888-------888-6]
g----------------------------------------------------]
d----------------------------------------------------]
a----------------------------------------------------]
E----------------------------------------------------]
and then...
"scan the cafiteriea for some good seating"
when that part comes up slowly and lightly do (mutipul times)
e----------------------]
b---6-6-6--5-5-5--3-3-3]
g---5-5-5--5-5-5--3-3-3]
d---3-3-3--3-3-3--3-3-3]
a----------------------]
E----------------------]


"she said your smooth and good with talking"
bass lightly in the background
g-------------------------------------------------]
d-------------------------------------------------]
a---------------------------------------6--6-6-6-6]
E---6--6-6-6-6--1--1-1-1-1--3--3-3-3-3------------]

and then you do the chorus until the end of the song and end on
this 
e-------]
b---5--6]
g---5--5]
d---3--3]
a-------]
E-------]
well that all any questions or corrections you can
email me at rapsucksitstrue@hotmail.com

jake,
Comments