Relient K - Sadie Hawkins Dance Chords & Tabs

 

Sadie Hawkins Dance Chords & Tabs

Relient K Chords & Tabs

Version: 2 Type: Tab 0 ratings
1 star 2 stars 3 stars 4 stars 5 stars
comments

Sadie Hawkins Dance Tab

   
-------------------------------------------------------------------------------
			     SADIE HAWKINS DANCE - Relient K
-------------------------------------------------------------------------------

Tabbed by:Dan Widmayer
Email:Rllerhckey@aol.com

Tuning:Standard

Intro
e-------------|-------------|-------------|-------------|
B--------11---|--------10---|--------8----|--------11---|
G----10-------|----10-------|----10-------|----10-------|
D-8-----------|-8-----------|-8-----------|-8-----------|
A-------------|-------------|-------------|-------------|
E-------------|-------------|-------------|-------------|

e-------------|-------------|-------------|-------------|
B----11---11--|----10---10--|----8---8----|-----11---11-|
G--10---10----|--10---10----|--10--10-----|---10---10---|
D-8----8------|-8----8------|-8---8-------|--8----8-----|
A-------------|-------------|-------------|-------------|
E-------------|-------------|-------------|-------------|

e-------------|-------------|-------------|-------------|
B----11---11--|----10---10--|----8---8----|-----11------|
G--10---10----|--10---10----|--10--10-----|---10--------|
D-8----8------|-8----8------|-8---8-------|--8----------|
A-------------|-------------|-------------|-------------|
E-------------|-------------|-------------|-------------|

Distorted Part
e|--------------|--------------|---------------|-------------------|
B|--------------|--------------|---------------|-------------------|
G|--------------|--------------|---------------|-------------------|
D|-3--3-3-3-3-3-|--------------|---------------|-8-8-8-8-8-8-8-8---| 
A|-1--1-1-1-1-1-|-3--3-3-3-3-3-|-5--5-5-5-5-5--|-6-6-6-6-6-6-6-6---|
E|--------------|-1--1-1-1-1-1-|-3--3-3-3-3-3--|-------------------|
There's a second guitar playing in the background, email me if you need it.

Verse (Palm Muted)
e|-----------------|-----------------|------------------------------------|
B|-----------------|-----------------|------------------------------------|
G|-----------------|-----------------|------------------------------------|
D|-3-3-3-3-3-3-3-3-|-----------------|------------------8-8-8-8-8-8-8-8---| 
A|-1-1-1-1-1-1-1-1-|-3-3-3-3-3-3-3-3-|-5-5-5-5-5-5-5-5--6-6-6-6-6-6-6-6---|
E|-----------------|-1-1-1-1-1-1-1-1-|-3-3-3-3-3-3-3-3--------------------|

Chorus
e|------------|-------------|------------|----|
B|------------|-------------|------------|----|
G|------------|-------------|------------|----|
D|-3--3--3--3-|-------------|------------|-8--|
A|-1--1--1--1-|-3--3--3--3--|-5--5--5--5-|-6--|
E|------------|-1--1--1--1--|-3--3--3--3-|----|
[ Tab from: http://www.guitartabs.cc/tabs/r/relient_k/sadie_hawkins_dance_tab_ver_2.html ]
e|------------|-------------|------------|---------------|
B|------------|-------------|------------|---------------|
G|------------|-------------|------------|---------------|
D|-3--3--3--3-|-------------|------------|-8--8-8-8-8-8--|
A|-1--1--1--1-|-3--3--3--3--|-5--5--5--5-|-6--6-6-6-6-6--|
E|------------|-1--1--1--1--|-3--3--3--3-|---------------|

Bridge
e|--------------|--------------|---------------|-------------------|
B|--------------|--------------|---------------|-------------------|
G|--------------|--------------|---------------|-------------------|
D|-3--3-3-3-3-3-|--------------|---------------|-8-8-8-8-8-8-8-8---| 
A|-1--1-1-1-1-1-|-3--3-3-3-3-3-|-5--5-5-5-5-5--|-6-6-6-6-6-6-6-6---|
E|--------------|-1--1-1-1-1-1-|-3--3-3-3-3-3--|-------------------|

e|-------------------------|-------------------------|-------------------------|
B|-10-10-10-12-12-12-15-15-|-10-10-10-12-12-12-15-15-|-10-10-10-12-12-12-15-15-|
G|-------------------------|-------------------------|-------------------------|
D|-------------------------|-------------------------|-------------------------|
A|-------------------------|-------------------------|-------------------------|
E|-------------------------|-------------------------|-------------------------|

e|-----------------------|
B|-15-15-15-12-12-12-10--|
G|-----------------------|
D|-----------------------|
A|-----------------------|
E|-----------------------|

e-------------|-------------|-------------|-------------|
B--------11---|--------10---|--------8----|--------11---|
G----10-------|----10-------|----10-------|----10-------|
D-8-----------|-8-----------|-8-----------|-8-----------|
A-------------|-------------|-------------|-------------|
E-------------|-------------|-------------|-------------|

e-------------|-------------|-------------|-------------|
B--------11---|--------10---|--------8----|--------11---|
G----10-------|----10-------|----10-------|----10-------|
D-8-----------|-8-----------|-8-----------|-8-----------|
A-------------|-------------|-------------|-------------|
E-------------|-------------|-------------|-------------|

e-------------|-------------|-------------|-------------|
B----11---11--|----10---10--|----8---8----|-----11---11-|
G--10---10----|--10---10----|--10--10-----|---10---10---|
D-8----8------|-8----8------|-8---8-------|--8----8-----|
A-------------|-------------|-------------|-------------|
E-------------|-------------|-------------|-------------|

e-------------|-------------|-------------|-------------|
B----11---11--|----10---10--|----8---8----|-----11------|
G--10---10----|--10---10----|--10--10-----|---10--------|
D-8----8------|-8----8------|-8---8-------|--8----------|
A-------------|-------------|-------------|-------------|
E-------------|-------------|-------------|-------------|
"she said your smooth.."-thats a bass part i think



order:
intro (distorted part, x4)
verse x2
chorus
verse x2
chorus
bridge
chorus x2


Key(which you dont need)

| /  slide up
| \  slide down
| h  hammer-on
| p  pull-off
| ~  vibrato
| +  harmonic
| x  Mute note

===============================================================================
Comments