Relient K - Sadie Hawkins Dance Chords & Tabs

 

Sadie Hawkins Dance Chords & Tabs

Relient K Chords & Tabs

Version: 1 Type: Bass Tab 0 ratings
1 star 2 stars 3 stars 4 stars 5 stars
comments

Sadie Hawkins Dance Bass Tab

Song: Sadie Hawkins Dance
Album: The Anatomy of The tONGUE In Cheek
Tabed by: Matt (MC) um.... my e-mail is mlit37@yahoo.com

-Intro/Verse 1-
G|----------------------------------------------|
D|----------------------------11111111----------|
A|-11111111-------------------------------------| 
E|----------11111111-33333333-------------------|x4 in the intro and 
                                                 x2 in the Verse.
-Chorus-
G|----------------------------------------------|
D|----------------------------{1}---------------|
A|-1-1-1-1--------------------------------------|
E|----------1-1-1-1--3-3-3-3--------------------|

G|----------------------------------------------|
D|----------------------------11111111----------|
A|-1-1-1-1--------------------------------------|
E|----------1-1-1-1--3-3-3-3--------------------|it is pretty simple to play this. 
{#} - means play fast and stop right after you pluck the note

-Verse 2-
G|----------------------------------------------|
D|----------------------------11111111----------|
A|-11111111-------------------------------------|
E|----------11111111-33333333-------------------|x2 then the Chorus again
[ Tab from: http://www.guitartabs.cc/tabs/r/relient_k/sadie_hawkins_dance_btab.html ]
-Chorus-
G|----------------------------------------------|
D|----------------------------{1}---------------|
A|-1-1-1-1--------------------------------------|
E|----------1-1-1-1--3-3-3-3--------------------|

G|----------------------------------------------|
D|----------------------------11111111----------|
A|-1-1-1-1--------------------------------------|
E|----------1-1-1-1--3-3-3-3--------------------|

Then you play the Verse one time, and then Interlude 1 whitch is the same as the
verse.

-Interlude 1-
G|----------------------------------------------|
D|----------------------------11111111----------|
A|-11111111-------------------------------------|
E|----------11111111-33333333-------------------|

-Interlude 2- She said "Your smooth..."
G|----------------------------------------------|
D|--------------------1-11-11-------------------|
A|-----------------------------11---------------|
E|--3-33-33--1-11-11--------------11--33--------|

G|------------------------------------------11--|
D|--------------------1-11-11-------------------|
A|-----------------------------11---------------|
E|--3-33-33--1-11-11---------------11----33-----|

That's it i think. This is my first tabs so please e-mail me if there are any
problems, questions, concerns, or if ya wanna say hi - at mlit37@yahoo.com.
thanks so much "Ultimate-guitar" -peace
Comments