Relient K - Rest Is Up To You Chords & Tabs

 

Rest Is Up To You Chords & Tabs

Relient K Chords & Tabs

Version: 1 Type: Bass Tab 0 ratings
1 star 2 stars 3 stars 4 stars 5 stars
comments

Rest Is Up To You Bass Tab

Ok...I haven't been playing bass very long and this is my first tab
so forgive me if its a little off...


Tunning: EADG

Intro/Verse1:
G|---------------------------------------------------------------|
D|---------------------------------------------------------------|
A|-0-000000--2-222222--------------------------------------------|
E|---------------------------------------------------------------|

(verse)
G|---------------------------------------------------------------|
D|-2242--42--2---------------------------------------------------|
A|-----22--44-44-4-00-0------------------------------------------|
E|---------------------------------------------------------------|X6
     (listen to the song and you'll get the rhythm)
[ Tab from: http://www.guitartabs.cc/tabs/r/relient_k/rest_is_up_to_you_btab.html ]
Chorus:
G|--------------------------------------------------------------------------
D|--------------------------------------------------------------------------
A|--3-------------------2222222222222222-4444444444444444-------------------
E|------0-0-0-0-0-0-0-0-----------------------------------4444444444444444--

G|----------------------------------------------------------------|
D|----------------------------------------------------------------|
A|-0000000000000000-----------------------------------------------|
E|----------------------------------------------------------------|

Bridge:
G|----------------------------------------------------------------------|
D|--------------------------9-6-7---------------------------------------|
A|-7777777777777777-66666666-----5555555555555555-----------------------|
E|-----------------------------------------------555555-777-777---------|


i know its not great but its all i got right now (repeat the verse, chorus and
bridge as nessasary.)

thanks, cam <><
Comments