Relient K - Pressing On Chords & Tabs

 

Pressing On Chords & Tabs

Relient K Chords & Tabs

Version: 7 Type: Tab 0 ratings
1 star 2 stars 3 stars 4 stars 5 stars
comments

Pressing On Tab

   
-------------------------------------------------------------------------------
			     PRESSING ON - Relient K
-------------------------------------------------------------------------------

Album: The Anatomy of the Tongue in Cheek
Tabbed by: mmmskittles
Tuning:Eb Ab Db Gb Bb eb, I have no idea what it's called,
standard tuning tuned down a half step or something like that

| /  slide up
| \  slide down
| h  hammer-on
| p  pull-off
| x  Mute note
| *  palm muted --> I decided to star the palm muted notes. If you don't like
it, well, um, ignore it. 

...so here's how *I* play pressing on, on my guitar that's tuned differently from
everyone elses, so it'll probably be completely useless to all who have standard
tuning.

Intro 

eb|-------------------------------------------|
Bb|-------------------------------------------|
Gb|-2-----------------------------------------|   (x4)
Db|-0--00-4h5--2-2-4p2--4-----4h5------4p2----|
Ab|----**------0-0------2--22------5-5--------|
Eb|------------------------**------3-3--------|

Verse- "I think we're going somewhere...we're onto something good here."
eb|------------------------------------------------------------------|
Bb|------------------------------------------------------------------|
Gb|------------------------------------------------------------------|(x3)
Db|---7---------------7----------------4-----------------------------|
Ab|---5-55-5555-------4-44-4444--------2-22-2222---5-----------------|
Eb|-----**-****---------**-****----------**-****---3-33-3333---------|
                                                     ** ****
    "There's only one thing left to do, drop all I have and go with..."
eb|---------------------------------------------------------------------------|
Bb|---------------------------------------------------------------------------|
Gb|---------------------------------------------------------------------------|
Db|---7--7--7--7---7---7-----7---7--4----4----4--4----------------------------|
Ab|---5--5--5--5---4---4-----4---4--2----2----2--2--5----5---5---5------------|
Eb|-------------------------------------------------3----3---3---3------------|
[ Tab from: http://www.guitartabs.cc/tabs/r/relient_k/pressing_on_tab_ver_7.html ]
   
   "...you. Somewhere back there I left my worries all behind." (x2)
eb|---------------------------------------------------------------------------|
Bb|---------------------------------------------------------------------------|
Gb|---------------------------------------------------------------------------|
Db|--7-/9-99-9---7-/9-99-9---11-/12-1212-12---11-/12-1212-12--7-7-7-7---------|
Ab|--5/-7-77-7---5/-7-77-7---9-/-10-1010-10---9-/-10-1010-10--5-5-5-5-7-7-7-7-|
Eb|-------------------------------------------------------------------5-5-5-5-|
  
   "and to go back from where I was would just be wrong"
eb|---------------------------------------------------------|
Bb|---------------------------------------------------------|
Gb|---------------------------------------------------------|
Db|----------5~~~------------------------------------7~~~---|
Ab|----------5~~~------------------------------------7~~~---|
Eb|----------3~~~------------------------------------5~~~---|

    Chorus 
eb|-x-xxxx---------------------------------------|
Bb|-x-xxxx---------------------------------------|
Gb|-x-xxxx-7-------------------------------------|
Db|-x-xxxx-7---7---9---5-----------------5---7---|
Ab|-x-xxxx-5---7---9---5----(x4, then)---5---7---|
Eb|-x-xxxx-----5---7---3-----------------3---5---|

Then it repeats the verse, and the prechorus, and the chorus, and then the intro
a few times, and here's the last part ( "You look down on me but you don't look
down on me at all"):

eb|---------------------------------------------------------------------------|
Bb|---------------------------------------------------------------------------|
Gb|--7---7---7---7---7---7---7---7---7---7---7---6---9---9---9---6------------|
Db|----5---5---5---5---7---7---7---7---9---9---9---9---0---0---0---0----------|
Ab|---------------------------------------------------------------------------|
Eb|---------------------------------------------------------------------------|

    "You smile and laugh..."
eb|---------------------------------------------------------------------------|
Bb|---------------------------------------------------------------------------|
Gb|--7---7---7---7---7---7---7---7---7---7---7---7---7---7---7---7------------|
Db|----5---5---5---5---7---7---7---7---0---0---0---0---0---0---0---0----------|
Ab|---------------------------------------------------------------------------|
Eb|---------------------------------------------------------------------------|

    "Yeah, I think we're going somewhere..."
eb|---------------------------------------------------------------------------|
Bb|---------------------------------------------------------------------------|
Gb|--7---7---7---6---7---7---7---6---7---7---7---6---9---9---9---6------------|
Db|----5---5---5---5---7---7---7---7---9---9---9---9---0---0---0---0----------|
Ab|---------------------------------------------------------------------------|
Eb|---------------------------------------------------------------------------|

     "We're gonna make it after all"! 
eb|---------------------------------------------------------------------------|
Bb|---------------------------------------------------------------------------|
Gb|------------------------------7--------------------------------------------|
Db|---5------------7-------------7--------------------------------------------|
Ab|---5------------7-------------5--------------------------------------------|
Eb|---3------------5----------------------------------------------------------|

Yaay...it's over! Okay, so if you think it sucks, PLEASE actually make
corrections because I want to be able to play it right, too.
And you can e-mail me at slinkyslide@hotmail.com.
===============================================================================
Comments