Relient K - Pressing On Chords & Tabs

 

Pressing On Chords & Tabs

Relient K Chords & Tabs

Version: 6 Type: Tab 0 ratings
1 star 2 stars 3 stars 4 stars 5 stars
comments

Pressing On Tab

Relient K  
Pressing On
The Anatomy Of The Tongue In Cheek
Standard Tuning
Tabbed By Mike, NewFoundWeez182@aol.com
(Strumming Not Shown)


Intro Gt1
E--------------------------
B--------------------------
G--------------------------
D---3h4---3-1---3h4---3-1--
A-4-----------1------------
E-------4-----------2------

Gt2
E----------
B----------
G-6--------
D-6-6-8-4--
A-4-6-8-4--
E---4-6-2

Verse (on last time play with out PM)
E----------
B----------
G-6-6-3----
D-6-6-3-4--
A-4-3-1-4--
E-------2-
PM* * * *

Pre-Chorus
E-------------------------------|------
B-------------------------------|------
G-6/8--6/8-10/11-10/11---6----|------
D-6/8--6/8-10/11-10/11---x-6--|-4-6--
A-4/6--4/6---8/-9---8/-9---4-6--|-4-6--
E----------------------------4--|-2-4
[ Tab from: http://www.guitartabs.cc/tabs/r/relient_k/pressing_on_tab_ver_6.html ]
Chorus
E----------|------
B----------|------
G-6--------|------      
D-6-6-8-4-|-4/6--
A-4-6-8-4--|-4/6--
E---4-6-2--|-2/4-

(Verse)
(Pre-Chorus)
(Chorus)
(Intro)
(Chorus)

Bridge
E-----------------------------------------------------------------
B-----------------------------------------------------------------
G-6---6---6---6---5---5---5---5---6---6---6---6---8---8---8---5---
D---6---6---6---6---6---6---6---6---6---6---6---6---6---6---6---6-
A-----------------------------------------------------------------
E-----------------------------------------------------------------

Ending
E--------------
B--------------
G---------6~~--
D-4~~-6~~-6~~--
A-4~~-6~~-4~~--
E-2~~-4~~------

A very good and easy song. Im pretty certain that this tab is correct,
but if you have any corrections, then just e-mail me.
Comments