Relient K - Pressing On Chords & Tabs

 

Pressing On Chords & Tabs

Relient K Chords & Tabs

Version: 5 Type: Tab 0 ratings
1 star 2 stars 3 stars 4 stars 5 stars
comments

Pressing On Tab

   
Artist:Relient K
Song:Pressing On

h=hammer down
/slide
*=palm mute
~=let ring out
Intro-
e---------------------------------
B---------------------------------
G---------------------------------
D-6-3h4------------------3~p2-----
A-4-----66-8~p6-8-6h8-44----------
E-------44------6-----22----------

Verse-
E---------------------------------
B---------------------------------  X3
G-6-66666-6-66666-3-33333---------     Then, on forth time don't 
D-6-66666-6-66666-3-33333-4-44444-     palm mute anything.
A-4-44444-3-33333-1-11111-4-44444-
E-------------------------2-22222-
    *****   *****   *****   *****
[ Tab from: http://www.guitartabs.cc/tabs/r/relient_k/pressing_on_tab_ver_5.html ]
Chorus part 1-
E-------------------------------------------------------------
B-------------------------------------------------------------
G-66/888-66/888-10 10/11 11 11-10 10/11 11 11-6-6-6-6---------
D-66/888-66/888-10 10/11 11 11-10 10/11 11 11-x-x-x-x-6-6-6-6- X2 
A-44/666-44/666- 8  8/ 9  9  9- 8  8/ 9  9  9-4-4-4-4-6-6-6-6- 
E-----------------------------------------------------4-4-4-4-
                  and after second time you go...
E---------------
B---------------
G---------------
D-4-4-4-4-6-6-6-
A-4-4-4-4-6-6-6-     PAUSE
E-2-2-2-2-4-4-4-  

Chorus-

E-------------------      --------------
B-------------------      --------------
G-666---------------      --------------
D-666-6666-888-4444-   X4 -444444/666~~~~~
A-444-6666-888-4444-      -444444/666~~~~~
E-----4444-666-2222-      -222222/444~~~~~

Slow Part
E-----------------------------------------------------------------
B-----------------------------------------------------------------
G-6---6---6---6---5---5---5---5---6---6---6---6---8---8---8---5---
D---6---6---6---6---6---6---6---6---6---6---6---6---6---6---6---6-
A-----------------------------------------------------------------
E-----------------------------------------------------------------

Ending-
E-------------------
B-------------------
G---------6~~~~~~~~-
D-4~~-6~~-6~~~~~~~~-
A-4~~-6~~-4~~~~~~~~-
E-2~~-4~~-----------


Order of song:
Intro X4
Verse X4
Chorus Part 1 X2
Chorus X4
Verse X4 
Chorus Part 1 X2
Chorus X4
Chorus X2
Intro X4
Part after chorus X1
PAUSE
Chorus SLOW X2
Chorus X2
Slow Part X3
Ending X1
Comments