Relient K - Pressing On Chords & Tabs

 

Pressing On Chords & Tabs

Relient K Chords & Tabs

Version: 2 Type: Tab 0 ratings
1 star 2 stars 3 stars 4 stars 5 stars
comments

Pressing On Tab

Standard Tuning (Dropped D if your lazy)
~  = Palm Mute
/  = Slide
*  = Let Ring
(#)= Alternate fingering

Intro

Guitar 1
  *Play this 4 times
e---------------------------------------------------
B---------------------------------------------------
G-(6)-----------------------------------------------
D--6----(66)----(8)---(44)--------------------------
A--4-6-8-66-8-6--8-6-8-44-8-6-----------------------
E--------44------6-----22---------------------------

Guitar 2 
  *Starts after Guitar 1 plays intro 1 time
  *Play this 3 times
e---------------------------------------------------
B---------------------------------------------------
G---------------------------------------------------
D--6------------------------------------------------
A--4----6----8----4---------------------------------
E-------4----6----2---------------------------------

Verse

Guitar 1 & Guitar 2 (Play at same time)
  *Play this 3 times
e---------------------------------------------------
B---------------------------------------------------
G---------------------------------------------------
D--6~~~~--------------------------------------------
A--4~~~~6~~~~8~~~~4~~~~-----------------------------
E-------4~~~~6~~~~2~~~~-----------------------------

Guitar 1 
  *Play this 1 time
e---------------------------------------------------
B---------------------------------------------------
G---------------------------------------------------
D--6-6-6-6------------------------------------------
A--4-4-4-4-6-6-6-6-8-8-8-8-4-4-4-4------------------
E----------4-4-4-4-6-6-6-6-2-2-2-2------------------

Guitar 2 
  *Play this 1 time with a combination of upstrokes and downstrokes
e---------------------------------------------------
B---------------------------------------------------
G---------------------------------------------------
D--66666666-----------------------------------------
A--44444444666666668888888844444444-----------------
E----------444444446666666622222222-----------------

Guitar 1
  *Play this 1 time while Guitar 2 rests
e---------------------------------------------------
B---------------------------------------------------
G--6/8-8--6/8-8--8/10-10--8/10-10-------------------
D--6/8-8--6/8-8--8/10-10--8/10-10-------------------
A--4/6-6--4/6-6--6/-8--8--6/-8--8-------------------
E---------------------------------------------------

Guitar 2 
  *Rests as Guitar 1 plays the tab above

Guitar 1
  *Play this 1 time
e---------------------------------------------------
B---------------------------------------------------
G-------------------6/8-8--6/8-8--8/10-10--8/10-10--
D--6-6-6-6----------6/8-8--6/8-8--8/10-10--8/10-10--
A--4-4-4-4-6-6-6-6--4/6-6--4/6-6--6/-8--8--6/-8--8--
E----------4-4-4-4----------------------------------

Guitar 2
  *Play this 1 time 
e---------------------------------------------------
B---------------------------------------------------
G---------------------------------------------------
D--6-6-6-6------------------------------------------
A--4-4-4-4-6-6-6-6-8-8-8-8-4-4-4-4------------------
E----------4-4-4-4-6-6-6-6-2-2-2-2------------------

Guitar 1 & Guitar 2 (Play at same time)
  *Play this 1 time
e---------------------------------------------------
B---------------------------------------------------
G---------------------------------------------------
D--6-6-6-6------------------------------------------
A--4-4-4-4-6-6-6-6-4-4-4-4-6-6-6--------------------
E----------4-4-4-4-2-2-2-2-4-4-4--------------------

Chorus

Guitar 1 & Guitar 2 (Add Variation of similar rythm if you want)
  *Play this 3 times
e---------------------------------------------------
B---------------------------------------------------
G---------------------------------------------------
D--6-6----------------------------------------------
A--4-4-6-6-6-6-8-8-4-4-4-4--------------------------
E------4-4-4-4-6-6-2-2-2-2--------------------------

Guitar 1 & Guitar 2 (Play at same time)
  *Play this 1 time
e---------------------------------------------------
B---------------------------------------------------
G---------------------------------------------------
D---------------------------------------------------
A--4-4-4-4-6-6-6------------------------------------
E--2-2-2-2-4-4-4------------------------------------

Verse

Guitar 1 & Guitar 2 (Play at same time)
  *Play this 3 times
e---------------------------------------------------
B---------------------------------------------------
G---------------------------------------------------
D--6~~~~--------------------------------------------
A--4~~~~6~~~~8~~~~4~~~~-----------------------------
E-------4~~~~6~~~~2~~~~-----------------------------

Guitar 1 
  *Play this 1 time
e---------------------------------------------------
B---------------------------------------------------
G---------------------------------------------------
D--6-6-6-6------------------------------------------
A--4-4-4-4-6-6-6-6-8-8-8-8-4-4-4-4------------------
E----------4-4-4-4-6-6-6-6-2-2-2-2------------------

Guitar 2 
  *Play this 1 time with a combination of upstrokes and downstrokes
e---------------------------------------------------
B---------------------------------------------------
G---------------------------------------------------
D--66666666-----------------------------------------
A--44444444666666668888888844444444-----------------
E----------444444446666666622222222-----------------

Guitar 1
  *Play this 1 time while Guitar 2 rests
e---------------------------------------------------
B---------------------------------------------------
G--6/8-8--6/8-8--8/10-10--8/10-10-------------------
D--6/8-8--6/8-8--8/10-10--8/10-10-------------------
A--4/6-6--4/6-6--6/-8--8--6/-8--8-------------------
E---------------------------------------------------

Guitar 2 
  *Rests as Guitar 1 plays the tab above
[ Tab from: http://www.guitartabs.cc/tabs/r/relient_k/pressing_on_tab_ver_2.html ]
Guitar 1
  *Play this 1 time
e---------------------------------------------------
B---------------------------------------------------
G-------------------6/8-8--6/8-8--8/10-10--8/10-10--
D--6-6-6-6----------6/8-8--6/8-8--8/10-10--8/10-10--
A--4-4-4-4-6-6-6-6--4/6-6--4/6-6--6/-8--8--6/-8--8--
E----------4-4-4-4----------------------------------

Guitar 2
  *Play this 1 time 
e---------------------------------------------------
B---------------------------------------------------
G---------------------------------------------------
D--6-6-6-6------------------------------------------
A--4-4-4-4-6-6-6-6-8-8-8-8-4-4-4-4------------------
E----------4-4-4-4-6-6-6-6-2-2-2-2------------------

Guitar 1 & Guitar 2 (Play at same time)
  *Play this 1 time
e---------------------------------------------------
B---------------------------------------------------
G---------------------------------------------------
D--6-6-6-6------------------------------------------
A--4-4-4-4-6-6-6-6-4-4-4-4-6-6-6--------------------
E----------4-4-4-4-2-2-2-2-4-4-4--------------------

Chorus

Guitar 1 & Guitar 2 (Add Variation of similar rythm if you want)
  *Play this 3 times
e---------------------------------------------------
B---------------------------------------------------
G---------------------------------------------------
D--6-6----------------------------------------------
A--4-4-6-6-6-6-8-8-4-4-4-4--------------------------
E------4-4-4-4-6-6-2-2-2-2--------------------------

Guitar 1 & Guitar 2 (Play at same time)
  *Play this 1 time
e---------------------------------------------------
B---------------------------------------------------
G---------------------------------------------------
D---------------------------------------------------
A--4-4-4-4-6-6-6------------------------------------
E--2-2-2-2-4-4-4------------------------------------

Guitar 1 & Guitar 2 (Play at same time)
  *Play this 1 time
e---------------------------------------------------
B---------------------------------------------------
G---------------------------------------------------
D--6-6----------------------------------------------
A--4-4-6-6-6-6-8-8-4-4-4-4--------------------------
E------4-4-4-4-6-6-2-2-2-2--------------------------

Guitar 1 & Guitar 2 (Play at same time)
  *Play this 1 time
e---------------------------------------------------
B---------------------------------------------------
G---------------------------------------------------
D--6-6----------------------------------------------
A--4-4-6-6-6-6-8-8-4--------------------------------
E------4-4-4-4-6-6-2--------------------------------

Intro

Guitar 1
  *Play this 4 times
e---------------------------------------------------
B---------------------------------------------------
G-(6)-----------------------------------------------
D--6----(66)----(8)---(44)--------------------------
A--4-6-8-66-8-6--8-6-8-44-8-6-----------------------
E--------44------6-----22---------------------------

Guitar 2 
  *Starts after Guitar 1 plays 1/2 time (at the chord 8-8-6)
  *Play this 3 times ()= Play only first half
e---------------------------------------------------
B---------------------------------------------------
G---------------------------------------------------
D--(8----4)----6------------------------------------
A--(6----2)----4----6----8----4---------------------
E-------------------4----6----2---------------------

Guitar 1 & Guitar 2 (Play at same time)
  *Play this 1 time
e---------------------------------------------------
B---------------------------------------------------
G---------------------------------------------------
D--6****--------------------------------------------
A--4****-6****--4-4-4-4-6-6-6-----------------------
E--------4****--2-2-2-2-4-4-4-----------------------

Guitar 1 & Guitar 2 (Play at same time)
  *Play this 4 times
e---------------------------------------------------
B---------------------------------------------------
G---------------------------------------------------
D--6-6----------------------------------------------
A--4-4-6-6-6-6-8-8-4-4-4-4--------------------------
E------4-4-4-4-6-6-2-2-2-2--------------------------

Guitar 1 & Guitar 2 (Play same time)
  *Play this 1 time
e---------------------------------------------------
B---------------------------------------------------
G---------------------------------------------------
D-------------------6****---------------------------
A--4-4-4-4-6-6-6----4****---------------------------
E--2-2-2-2-4-4-4------------------------------------

Interlude (Ending; Slow Part)

Guitar 1 (& Guitar 2 if you want)
*Play this 1 time 
e---------------------------------------------------
B--6-6-6-6--6-6-6-6--6-6-6-5--8-8-8-5---------------
G---------------------------------------------------
D---------------------------------------------------
A---------------------------------------------------
E---------------------------------------------------

Guitar 1 (& Guitar 2 if you want)
  *Play this 1 time
e---------------------------------------------------
B--6-6-6-5--6-6-6-5--6-6-6-6--6-6-6-6---------------
G---------------------------------------------------
D---------------------------------------------------
A---------------------------------------------------
E---------------------------------------------------

Guitar 1 (& Guitar 2 if you want)
  *Play this 1 time
e---------------------------------------------------
B--6-6-6-5--6-6-6-5--6-6-6-5--8-8-8-5---------------
G---------------------------------------------------
D---------------------------------------------------
A---------------------------------------------------
E---------------------------------------------------

Guitar 1 & Guitar 2 (Play at same time)
  *Play this 1 time
e---------------------------------------------------
B---------------------------------------------------
G---------------------------------------------------
D----------------------6****------------------------
A--8****-----6****-----4****------------------------
E--6****-----4****----------------------------------
Comments