Relient K - Pressing On Chords & Tabs

 

Pressing On Chords & Tabs

Relient K Chords & Tabs

Version: 5 Type: Bass Tab 0 ratings
1 star 2 stars 3 stars 4 stars 5 stars
comments

Pressing On Bass Tab

   
PRESSING ON
RELIENT K
tabbed by saturns_bassman
 
hey this is the way i play it in my band the toher tabbs were ok but needed to be bumped
up some
 
into/chorus:
                                        
g|---------------------------------|| play
d|-0-0-0-0-------------------------||  x4
a|---------0-0-0-0-2-2-2-2---------||
e|-------------------------3-3-3-3-||

verse:

g|--------------------------||  play
d|-0-0-0--------------------||   x4
a|-------4-4-4--2-2-2-------||
e|---------------------3-3-3||

pre-chorus:            *=let it ring
                       h=hammeron
g|----------------------------------------------------------------------|
d|-------------------4h5-5-5-5--4h5-5-5-5----0*-------------------------|
a|-5h7-7-7--5h7-7-7--------------------------------0*--0-0-0--5h7-7-7-7-|
e|----------------------------------------------------------------------|
                                                               next line
g|---------------------------------------------------------------|| play
d|------------4h5--4h5----0*-------------------------------------||  x1
a|-5h7-7-7-7--------------------0*-------------------------------||
e|---------------------------------3-3-3-3-3-3-3-3-3--5-5-5-5-5-5||
[ Tab from: http://www.guitartabs.cc/tabs/r/relient_k/pressing_on_btab_ver_5.html ]
then after the intro,verse,pre-chorus,chorus twice they go into a instrumental whitch
is the same thing as the verse then they repeat the intro then they go into this they
sing this on this part "to go back to where i was would just be wrong im pressing on"
play that and hold the o 

g|--------------------------------||  play
d|--------------------------------||   x1
a|--------------------------------|| 
e|-3-3-3-3-3-3-3-3-3-3-5-5-5-5-5-5||

then they go into this really cool part whitch is just a the chorus back-wards it goes like this:
 
g|-------------------------------------------------------------------| play
d|-------------------------------------------------------------------|  x1
a|---------------------2-2-2-2-2-5-5-5-5-5-5-5-5---------------------|
e|-3-3-3-3-3-5-5-5-5-5---------------------------3-3-3-3-3-5-5-5-5-5-|
                                                       next line
g|----------------------------------------------------------------------||
d|----------------------------------------------------------------------||
a|---------------------5-5-5-5-5-5-5-5-5-5-5-5-5--------------2*------5*||
e|-3-3-3-3-3-5-5-5-5-5-----------------------------3*-----5*------------||
                                                      next line
end part:

g|---------|| play
d|-------0*||  x1
a|----0*---||
e|-3*------||


well this is it if any corrections please leave a comment or something enjoy!
Comments