Relient K - Pressing On Chords & Tabs

 

Pressing On Chords & Tabs

Relient K Chords & Tabs

Version: 3 Type: Bass Tab 0 ratings
1 star 2 stars 3 stars 4 stars 5 stars
comments

Pressing On Bass Tab

This is all in standard tuning, and pretty fast pased like most punk rock. It's not 
hard at all. In fact, Relient K's bassist doesnt even have the G string on his bass. 
But it's still a sweet song and cool to play. In a couple parts you need to listen
to get the timing, but its still not hard. It uses these same riffs over and over
throughout the song. Enjoy!

Intro Riff
G:----------
D:----------
A:----------
E:----2--4--

G:-----------------------------------------------------------------
D:-----------------------------------------------------------------
A:--4-4-4-4-4-4-4-4------------------------------------------------
E:------------------4-4-4-4-4-4-4-4-6-6-6-6-6-6-6-6-2-2-2-2-2--4---


Verse Riff (I think we're going somewhere...)
G:-------------------------------------------------------------------|
D:-------------------------------------------------------------------|
A:--4-4-4-4-4-4-4-4-3-3-3-3-3-3-3-3----------------------------------|
E:----------------------------------6-6-6-6-6-6-6-6-2-2-2-2-2-2-2-2--|


Pre-Chorus Riff (Somewhere back there I left my worries all behind...)
G:----------------------------------------------------------------------
D:----------------------------------------------------------------------
A:--4-6-6-6-6--4-6-6-6-6------------------------4-----------------------
E:------------------------2-2-2-2-2--2-2-2-2-2--------4--4--4--4--4--4--


The Going Back to Where I Was Would Just Be Wrong Riff.
G:--------------------------------
D:--------------------------------
A:--------------------------------
E:--2-2-2-2-2-2-2-2-4-4-4-4-4-----

[ Tab from: http://www.guitartabs.cc/tabs/r/relient_k/pressing_on_btab_ver_3.html ]
Chorus Riff [NOTE: notice how this looks a lot like the intro... thats cause it is]
G:-----------------------------------------------------------------
D:-----------------------------------------------------------------
A:--4-4-4-4-4-4-4-4------------------------------------------------
E:------------------4-4-4-4-4-4-4-4-6-6-6-6-6-6-6-6-2-2-2-2-2--4---


Bass solo/interlude thing/outro (2:52 and goes to the end)
G:---------------------------------------------------------
D:---------------------------------------------------------
A:--4-4--4-4--4-4--4-4--4-4-4-4--4-4--4-4--4-4--4-4-4-4----
E:---------------------------------------------------------

G:-------------------------------------------------------------------
D:-------------------------------------------------------------------
A:--------------------------------------------------4-4-4-4-4-4-4-4--
E:--2-2-2-2-2-2-2-2-4-4-4-4-4-4-4-4-6-6-6-6-6-6-6-6------------------

G:-------------------------------------------------------------------
D:-------------------------------------------------------------------
A:----------------------------------4-4-4-4-4-4-4-4-3-3-3-3-3-3-3-3--
E:--2-2-2-2-2-2-2-2-4-4-4-4-4-4-4-4----------------------------------

G:-------------------------------------------------------------------
D:-------------------------------------------------------------------
A:--------------------------------------------------4-4-4-4-4-4-4-4--
E:--2-2-2-2-2-2-2-2-4-4-4-4-4-4-4-4-6-6-6-6-6-6-6-6------------------

G:------------------------|
D:------------------------|
A:----------------4-------|
E:--2------4--------------|
Comments