Relient K - Over Thinking Chords & Tabs

 

Over Thinking Chords & Tabs

Relient K Chords & Tabs

Version: 1 Type: Bass Tab 0 ratings
1 star 2 stars 3 stars 4 stars 5 stars
comments

Over Thinking Bass Tab

   
Relient K Over Thinking
This is my second tab and i'm pretty sure this is right.
E-mail me if you have any corrections or comments.
soccerdude12@tds.net
Standard tuning E A D G
Intro

Fourteen eleven eleven
G-14-11-11--------------|
D-----------------------|
A-----------------------|
E-----------------------|

Verse     "I was Thinking, over thinking..."

G-----------------------------------------------------------|
D-----------------------------------------------------------|   Repeat
A-5555555555555555555555555---------------------------------|
E--------------------------33333333333333333-77777777-55555-|
[ Tab from: http://www.guitartabs.cc/tabs/r/relient_k/over_thinking_btab.html ]
Pre Chorus   "Cuz i think way too much"

G--------------------------------|
D--------------------------------|  repeat
A-5---5555-----------------------|
E----------5-5555--7-7777-3-3333-|

Chorus "I can't deny this..."

G---------------------------|
D---------------------------| repeat
A-----------------5555-4444-|
E-77-7777-33-3333-----------|

G---------------------------|
D---------------------------|
A----5--554--554------------|
E-77------------------------|

Bridge
G---------------------------|
D---------------------------|
A-555555-0000000------------|
E---------------------------|

Repeat pre-chorus and chorus
Repeat Verse


That's it. Please Rate.
Comments