Relient K - One Im Waiting For Chords & Tabs

 

One Im Waiting For Chords & Tabs

Relient K Chords & Tabs

Version: 1 Type: Tab 0 ratings
1 star 2 stars 3 stars 4 stars 5 stars
comments

One Im Waiting For Tab

   
Song: The One I'm Waiting For
Artist: Relient K
Album: mmHmm
Tabbed by: Deborah Chan
Email: skemo_the_fish@hotmail.com

Tuning: *DOWN a half-step* 

   Intro (lead guitar) 
eb|------------------------------------------------------------|
Bb|------------------------------------------------------------|
Gb|-14-------14-------14----(x2)-11-------11-------11----(x2)--|
Db|----12-12----12-12----12---------12-12----12-12----12-------|
Ab|-----*--*-----*--*-----*----------*--*-----*--*-----*-------|
Eb|------------------------------------------------------------|

eb|-------------------------------------------------------------|
Bb|-------------------------------------------------------------|
Gb|-12-------12-------12----(x2)-9-------9-------9--------------|
Db|----12-12----12-12----12--------12-12---12-12-----7--7--7-7--|
Ab|-----*--*-----*--*-----*---------*--*----*--*-----7--7--7-7--|
Eb|--------------------------------------------------5--5--5-5--|

eb|------------------------------------------------------------|
Bb|------------------------------------------------------------|
Gb|-14-------14-------14----(x4)-11-------11-------11----(x2)--|
Db|----12-12----12-12----12---------12-12----12-12----12-------|
Ab|-----*--*-----*--*-----*----------*--*-----*--*-----*-------|
Eb|------------------------------------------------------------|

eb|------------------------------|
Bb|------------------------------|
Gb|-9-------9-------9------------|
Db|---12-12---12-12---7--7--7-7--|
Ab|----*--*----*--*---7--7--7-7--|
Eb|-------------------5--5--5-5--|

eb|-----------------------------------------------------------|
Bb|-----------------------------------------------------------|
Gb|-14-------14-------14----(x4)-11-------11-------11----(x2)-|
Db|----12-12----12-12----12---------12-12----12-12----12------|
Ab|-----*--*-----*--*-----*----------*--*-----*--*-----*------|
Eb|-----------------------------------------------------------|

eb|-xx-------xxxxxx----|
Bb|-xx-------xxxxxx----|
Gb|-xx-------xxxxxx----|
Db|-xx-7-7-7-xxxxxx-7--|
Ab|-xx-7-7-7-xxxxxx-7--|
Eb|-xx-5-5-5-xxxxxx-5--|

   Intro (rhythm guitar) _______________________ ____________________
                                            1.  |                  2.|
eb|---------------------------------------------|-xx-------xxxxxx----|
Bb|------------------------------------|-(x3)-|-|-xx-------xxxxxx----|
Gb|-o------------------------|-(x4)-|--77777777-|-xx-------xxxxxx----|
Db|-o-(lead ditty)-7--7--7-7-55555555--77777777-|-xx-7-7-7-xxxxxx-7--|
Ab|----------------7--7--7-7-55555555--55555555-|-xx-7-7-7-xxxxxx-7--|
Eb|----------------5--5--5-5-33333333-----------|-xx-5-5-5-xxxxxx-5--|
[ Tab from: http://www.guitartabs.cc/tabs/r/relient_k/one_im_waiting_for_tab.html ]
   Verse (Guitar 1)
eb|-----------------------------------------------------------------------|
Bb|-----------------------------------------------------------------------|
Gb|---------------------------------------------------------------------o-|
Db|-----4-------4-5-----4-------4-5-777-4---777-0045-777-4----7--7--7-7-o-|
Ab|-555---5-555-----555---5-555-----555---5-555------555---5--7--7--7-7---|
Eb|-333-----333-----333-----333-----***-----***------***------5--5--5-5---|
    ***     ***     ***     ***     
    Verse (Guitar 2 comes in on Guitar 1's second time around)
eb|----------------------------------------------------------------------|
Bb|----------------------------------------------------------------------|
Gb|-----2-------2-4-----2-------2-4-----2---------24-----2---------------|
Db|-------4---------------4---------777---4-777-44---777---4--7--7--7-7--|
Ab|-555-----555-----555-----555-----555-----555------555------7--7--7-7--|
Eb|-333-----333-----333-----333-----***-----------------------5--5--5-5--|
    ***     ***     ***     ***

 Both Guitars:
eb|-----------|
Bb|-----------|
Gb|-----------|
Db|-5~----7~--|
Ab|-5~----7~--|
Eb|-3~----5~--|

   Prechorus:
eb|-5--5--5--5-5-5--5--5--5-5-5--5--5--5-5--------|
Bb|-3--3--3--3-3-3--3--3--3-3-3--3--3--3-3--------|
Gb|-4--4--4--4-4-2--2--2--2-2-0--0--0--0-0------o-| (x2)
Db|-0--0--0--0-0-0--0--0--0-0-0--0--0--0-0--2~~-o-|
Ab|-----------------------------------------2~~---|
Eb|-----------------------------------------0~~---|

  Chorus 1
eb|--------------------------|
Bb|--------------------------|
Gb|------------------------o-| (x4)
Db|-----0-------0-------0--o-|
Ab|---5-------7-------9------|
Eb|-3-------5-------7--------|

  Verse 2
eb|------------------------------------------------------------------------|
Bb|------------------------------------------------------------------------|
Gb|----------------------------------------------------------------------o-|x2
Db|------------------------------------5555555555555555555555555---------o-|
Ab|-5555555555555555555555555555555555-7777777777777777777777777-7-7-7-7---|
Eb|-3333333333333333333333333333333333---------------------------5-5-5-5---|

  Prechorus 2:
eb|---------------------------------------------|
Bb|---------------------------------------------|
Gb|---------------------------------------------|
Db|------4-------4--------------4-------4-------|
Ab|-5-5-----5-5-----5-5----5-5-----5-5-----5/7--|
Eb|-3-3-----3-3-----3-3----3-3-----3-3-----3/5--|
   * *     * *     * *    * *     * *
  Chorus 2:
eb|-------------------------------------------------5-5-5-5-5.-|
Bb|-3-3-3-3-3-3-3-3-3-3-3-3-3-3-3-3-3-3-3-3-3-3-3-3-3-3-3-3-3.-|
Gb|-2-2-2-2-2-2-2-2-0-0-0-0-0-0-0-0-0-0-0-0-0-0-0-0-0-0-0-0-0.-|
Db|-0-0-0-0-0-0-0-0-0-0-0-0-0-0-0-0-2-2-2-2-2-2-2-2-0-0-0-0-0.-|
Ab|-0-0-0-0-0-0-0-0-x-x-x-x-x-x-x-x-2-2-2-2-2-2-2-2-x-x-x-x-x.-|
Eb|-----------------3-3-3-3-3-3-3-3-0-0-0-0-0-0-0-0-3-3-3-3-3.-|

  After chorus:
eb|----------------------------------------------------------|
Bb|----------------------------------------------------------|
Gb|-14-------14-------14---(x2)-11-------11-------11---(x2)--|
Db|----12-12----12-12----12--------12-12----12-12----12------|
Ab|----------------------------------------------------------|
Eb|----------------------------------------------------------|

eb|------------------------------------------------------|
Bb|------------------------------------------------------|
Gb|-12-------12-------12---(x2)-12---12---11-------------|
Db|----12-12----12-12----12-------------------------11~--|
Ab|--------------------------------------------12--------|
Eb|------------------------------------------------------|

o play prechorus
o play chorus

That is the whole song. You can't see it, but the intros are supposed to be 
played super-fast. Just listen to the song and you'll understand. I'm pretty 
sure that most of this is right, but some of it's probably wrong since my 
computer hates purevolume. E-mail me if you have corrections.

| /  slide up
| \  slide down
| h  hammer-on
| p  pull-off
| ~  vibrato
| +  harmonic
| x  Mute note
===============================================================================
Comments