Relient K - My Way Or The Highway To Hell Chords & Tabs

 

My Way Or The Highway To Hell Chords & Tabs

Relient K Chords & Tabs

Version: 1 Type: Tab 0 ratings
1 star 2 stars 3 stars 4 stars 5 stars
comments

My Way Or The Highway To Hell Tab

   
sus= sustain

Intro
	Csus
	Should I start this song off with a question, Or should I say what?s on my mind,
						                   C			        G
	add a cello here, to add a sad impression, cause I?m not looking forward to leaving
			C
	 my friends all behind.
Verse
	         C		  F		      G                              C
	I didn?t vote no I?m not proud cause I?m Canadian and I?m not allowed,
				       F		      G				C
	give it a go, or throw in the towel, stand all alone, or swing through the crowd,
	C	G		       C	      A	            G	         F
	No one around to help you decide, it?s time to make up your mind, it?s time to
		       G
	make up your mind

Pre Chorus
e--------------------------------------------------------------|
b--------------------------------------------------------------|
g--------------------------------------------------------------|
d-2-------------2--------------2--------------2-3--3-3-3-2-----|    (2x)
a--5-3--3-3-3-5-5-3--3-3-3-5-5-3--3-3-3-5-5--------------------|
e--------------------------------------------------------------|
[ Tab from: http://www.guitartabs.cc/tabs/r/relient_k/my_way_or_the_highway_to_hell_tab.html ]
2 Pre Chorus
e---------------------------------------------------|
b---------------------------------------------------|
g---------------------------------------------------|
d----2--2-2-----2--2-2--2-2-2-2--2--2-2-2-2--2------|
a-3-5--------3-5------------------------------------|
e---------------------------------------------------|

Chorus Lead
b-1-1-3-1-1-1-3- repeat all through chorus

Chorus
		 C	       F                     A			          F
	By the way side we fell, he said it?s my way or the highway to hell,
		    C		   F		    A			        F
	It?s your decision chose it well, he said it?s my way or the highway to hell,  (2x)


2 Verse
	C		      C		         F		           G		C
	Decisions we make life?s an election, precision we take seeking direction,
			C			          F		       G
	but there?s so many lies, unsure where we can look, but we?ve got a guide,
			     C		     G		          C        A	G
	a really thick hand book,  No one around to help you decide, it?s time to make up
	        F		G
	your mind, it?s time to make up your mind

Outro
	Csus						Csus
	The channels are sold do you wanna guess one, if that scares you to death my that

	be a lesson, it?s your decision make it the best one,

	or should I end this song off with a question
Comments