Relient K - My Girlfriend Chords & Tabs

 

My Girlfriend Chords & Tabs

Relient K Chords & Tabs

Version: 1 Type: Tab 0 ratings
1 star 2 stars 3 stars 4 stars 5 stars
comments

My Girlfriend Tab

Band: Relient K
Song: “My Girlfriend”
Tabed By: Caleb Woolery
[ Tab from: http://www.guitartabs.cc/tabs/r/relient_k/my_girlfriend_tab.html ]
Intro and Verse 
e---------------------------------------
B---------------------------------------
G---------------------------------------
D----------7-7-7-7-5-5-5-5-5/5----------
A-5-5-5-5-5-5-5-5-3-3-3-3-7/3-----------
E-3-3-3-3-------------------------------

Chorus
e--------------------------------------
B--------------------------------------
G--------------------------------------
D-----------------X-X-7-7-X-X-X-X-5-5--
A-X-X-5-5-X-X-5-5-X-X-5-5-X-X-X-X-3-3--
E-X-X-3-3-X-X-3-3----------------------
Comments