Relient K - More Than Useless Chords & Tabs

 

More Than Useless Chords & Tabs

Relient K Chords & Tabs

Version: 1 Type: Tab 1 rating
1 star 2 stars 3 stars 4 stars 5 stars
comments

More Than Useless Tab

-------------------------------------------------------------------------------
			    More than useless-intro(right)~~~~Relient k
-------------------------------------------------------------------------------
Tabbed by:ireg2tab1song
Email:red7sox@juno.com

Tuning:Drop D
[ Tab from: http://www.guitartabs.cc/tabs/r/relient_k/more_than_useless_tab.html ]
e|--------------------------------------------------------------------------|
B|--------------------------------------------------------------------------|
G|--7--7--7--7/8--8--8---8-8-8-8--8--8--8--8--8--8--------------------------|
D|-12-12-12-12-12-12-12--8-8-8-10-10-10-12-12-12-12-------------------------|
A|--------------------------------------------------------------------------|
D|--------------------------------------------------------------------------|            
                                                             X4
 The Main Chords used in this song are....
e|--------------------------------------------------------------------------|
B|--------------------------------------------------------------------------|
G|--------------------------------------------------------------------------|
D|----10---------6-------1--------------------------------------------------|
A|----10---------6-------1--------------------------------------------------|
D|----10---------6-------1--------------------------------------------------|


 /  slide up

  relient k is so good and im givin them their props on an amazing 4th album!(applauds)
Comments